Framework

(/) Slide Up  (\) Slide Down  (h) Hammer On  (p) Pull Off  (b) Bend (r) Release (v) Vibrato

E|---------------|-------------|-------------|-----------------|-------------|-------------|---------
B|---------------|-------------|-------------|-----------------|-------------|-------------|---------
G|---------------|-------------|-------------|-----------------|-------------|-------------|---------
D|---------------|-------------|-------------|-----------------|-------------|-------------|---------
A|-3-5-3-0-------|-------------|-------------|-3-5-3-0-3-5-3-0-|-------------|-------------|-3-5-3-0-
E|---------0-0-0-|-0-0-0-0-0-0-|-0-0-0-0-0-0-|-----------------|-0-0-0-0-0-0-|-0-0-0-0-0-0-|---------



E|---------|-------------|-------------|-|-----------------|-------------|-------------|---------
B|---------|-------------|-------------|-|-----------------|-------------|-------------|---------
G|---------|-------------|-------------|-|-----------------|-------------|-------------|---------
D|---------|-------0-5-8-|-------0-3-7-|-|-----------------|-------------|-------------|---------
A|-3-5-3-0-|-0-5-8-------|-0-4-7-------|-|-3-5-3-0-3-5-3-0-|-------------|-------------|-3-5-3-0-
E|---------|-------------|-------------|-|-----------------|-0-0-0-0-0-0-|-0-0-0-0-0-0-|---------



E|---------|-------------|-------------|-----------------|-------------|-------------|-|-
B|---------|-------------|-------------|-----------------|-------------|-------------|-|-
G|---------|-------------|-------------|-----------------|-------------|-------------|-|-
D|---------|-------------|-------------|-----------------|-------0-5-8-|-------0-3-7-|-|-
A|-3-5-3-0-|-------------|-------------|-3-5-3-0-3-5-3-0-|-0-5-8-------|-0-4-7-------|-|-
E|---------|-0-0-0-0-0-0-|-0-0-0-0-0-0-|-----------------|-------------|-------------|-|-



E|--------------|------------|-----------------|--------------|--------------|------------|---------------|--------------|---------------|--|--
B|--------------|------------|-----------------|--------------|--------------|------------|---------------|--------------|---------------|--|--
G|--------------|------------|-----------------|--------------|--------------|------------|---------------|--------------|---------------|--|--
D|--------------|------------|-----------------|--------------|--------------|------------|---------------|--------------|---------------|--|--
A|--5--0--------|------------|-----------------|--5--3-----5--|--3-----------|------------|---------------|--------------|-----10-----7--|--|--
E|--------0--0--|--0--0------|--0--0--------0--|--------0-----|-----0--0--0--|--0--0------|--0--0--0------|--0--5--0--8--|--0------0-----|--|--
http://www.guitartabcreator.com
Guitar Tab Creator is intended to store guitar tab created through the tool. It currently does not support in-line text editing. Any text you place in here will be lost. If you need to comment on your tab, please use the "Tab Notes" section located below.