All Washed Up (INTRO)

(/) Slide Up  (\) Slide Down  (h) Hammer On  (p) Pull Off  (b) Bend (r) Release (v) Vibrato


E|---------------------------------------------------------------------------
B|---------------------------------------------------------------------------
G|--------------------------------------------------------3-3-------3--------
D|---1-------1-3/5---5-5-3-1-3-1----------1-------1-3/5-------5-4-5---4h5----
A|-----3-2-3---------------------2h3--------3-2-3----------------------------
E|-3------------------------------------3------------------------------------



E|----------------------------------------------------------------------
B|----------------------------------------------------------------------
G|-5-5-3------------------------------------------1-0---5-5-3-----------
D|-------5-4-3-1---------1-3-5-5-4-3------1-------------------5-4-3-1---
A|---------------3---3-3--------------------3-2-3---------------------3-
E|--------------------------------------3-------------------------------
http://www.guitartabcreator.com
Guitar Tab Creator is intended to store guitar tab created through the tool. It currently does not support in-line text editing. Any text you place in here will be lost. If you need to comment on your tab, please use the "Tab Notes" section located below.