Horrible Dream

(/) Slide Up  (\) Slide Down  (h) Hammer On  (p) Pull Off  (b) Bend (r) Release (v) Vibrato
E|------------------------------------------------------------------------|-
B|------------------------------------------------------------------------|-
G|----------------------------------12---------------------------------12-|-
D|-----------2-3--10p12p10p12p10p12-------------2-3--10p12p10p12p10p12----|-
A|-------3-2--------------------------------3-2---------------------------|-
E|-0-2-3--------------------------------2-3-------------------------------|-



E|------------------------------------------------------------------------------------|-
B|------------------------------------------------------------------------------------|-
G|------------------------------------------------------------------------------------|-
D|----------9-9-9---------------------------------------------------------------------|-
A|-10-10-10-------12-11--------10-10-10-9-9-9-12-11--------10-10-10-------12-11-------|-
E|----------------------12-11-----------------------12-11-----------9-9-9-------12-11-|-



E|-----------------------------------------------------------------------------------------------|-
B|----------------------------------------------12-13--------------------------------------------|-
G|----------------------------------------12-13--------------------------------------13-------13b|-
D|-12/12-12-12-12-13-13-13-13-12-12-12-12--------------12/12-12-12-12-13-13-13-13-12----12-12----|-
A|-----------------------------------------------------------------------------------------------|-
E|-----------------------------------------------------------------------------------------------|-



E|----------------------------------10-12-------------------|-
B|----------------------------10-12-------11-10-------------|-
G|----------------------10-12-------------------11-10-------|-
D|-----------2-3--10h12-------------------------------11-10-|-
A|-------3-2------------------------------------------------|-
E|-0-2-3----------------------------------------------------|-


t:
E|------------------------------------------------|---
B|------------------------------------------------|---
G|-12-------------11-12-12-12-11-------------12---|---
D|-12-------11-12-------12-------12-11-------12---|---
A|-11-11-12-------------11-------------12-11-11---|---
E|------------------------------------------------|---


t:
E|-------------------------------------------------------------------12-12-11-|-
B|-------------------------------------------------------------12-11----------|-
G|-------------------------------------------------------12-11----------------|-
D|----------11----------11h10----------11----------12-11----------------------|-
A|-12-11-10----12-11-10-------12-11-10----12-11-10----------------------------|-
E|----------------------------------------------------------------------------|-


t:
E|----------------------------------------------------------------------------------8-|-
B|--------------------------------------------------------------------------------7---|-
G|---------------------------------12--------------------------------12---------6-----|-
D|-----------2-3-10p12p10p12p10p12-------------2-3-10p12p10p12p10p12----------5-------|-
A|-------3-2-------------------------------3-2------------------------------4---------|-
E|-0-2-3-------------------------------2-3------------------------------2-3-----------|-



E|-----------------|--
B|-----------------|--
G|--------------7--|--
D|--------2--3--7--|--
A|--3--2--------5--|--
E|-----------------|--
http://www.guitartabcreator.com
Guitar Tab Creator is intended to store guitar tab created through the tool. It currently does not support in-line text editing. Any text you place in here will be lost. If you need to comment on your tab, please use the "Tab Notes" section located below.