new life

(/) Slide Up  (\) Slide Down  (h) Hammer On  (p) Pull Off  (b) Bend (r) Release (v) Vibrato
Break the chains of life

standard tuning EADGBE
------|-0----0----0----0-------------|--|-------------------------------------|
------|-x----x----x----0-------------|--|-------------------------------------|
------|-2----2----4----x-------------|--|-------------------------------------|
------|-4----2----2----4---4p2-------|--|-------------------------------------|
------|-4----4----2----2--------4p2--|--|-------------------------------------|
------|-x----x----x----x-------------|--|-------------------------------------|
Intro/Verse Chords Strum

------|-------0--------------0--------------0--------------------|--|---------|
------|-------x--------------x--------------x--------------------|--|---------|
------|-------2--------2--2--2--2-2-2-------4--x-----------------|--|---------|
------|-4--4-----4-4-4-2--2-----2-2-2-2--2-----x-4--4--4-4p2-----|--|---------|
------|-4--4-----4-4-4----------------2--2-------2--2--2-----4p2-|--|---------|
------|-x--x-----x-x-x----------------x--x-------x--x--x---------|--|---------|
OR Basic Rhythm

------|---5----4-5-4---------------------------|----|-------------------------|
------|-----5--------5-------------------------|----|-------------------------|
------|-----------------4------------2------2--|----|-------------------------|
------|---------------------------2-----2h4----|-4--|-------------------------|
------|-5---------------------2h4--------------|----|-------------------------|
------|--------------------0-------------------|----|-------------------------|
Bridge 2nd time

------|---5----4-5-4---------5----4-----0----0-------2------------2-----------|
------|-----5--------5----------------------------5-----5-----5------5----5---|
------|-----------------4-----------------------------------------------------|
------|-----------------------------------------------------------------------|
------|-5---------------------------------2-----2----------2----2-------2-----|
------|--------------------3----2----0----------------------------------------|
Prechorus

-2-----------2-----|----------------------------------------------------------|
----5----5------5--|----------------------------------------------------------|
-------------------|----------------------------------------------------------|
-------------------|----------------------------------------------------------|
-------2---2-------|----------------------------------------------------------|
-------------------|----------------------------------------------------------|


------|----------------|--|---------------------|-----------------------------|
------|----------------|--|---------------------|-----------------------------|
------|-2--------------|--|---2---2---2---2---2-|-----------------------------|
------|-4---2---2---2--|--|---2-2-2-2-2-2-2-2-2-|-----------------------------|
------|-----0---x---x--|--|-----x---x---x---x---|-----------------------------|
------|-----x---3---0--|--|-----0---0---0---0---|-----------------------------|
Chorus Chords Strum Out

------|-------5-2-|--|--------------------------------------------------------|
------|-3-2-3-----|--|--------------------------------------------------------|
------|-----------|--|--------------------------------------------------------|
------|-----------|--|--------------------------------------------------------|
------|-----------|--|--------------------------------------------------------|
------|-----------|--|--------------------------------------------------------|
Piano






Capo 2nd Fret
Acoustic/unplugged
------|-x---x---x---x-------------|-------------------------------------------|
------|-3---3---3---3-------------|-------------------------------------------|
------|-0---0---2---0-------------|-------------------------------------------|
------|-2---0---0---2---2p0-------|-------------------------------------------|
------|-2---2---0---0--------2p0--|-------------------------------------------|
------|-x---x---x---x-------------|-------------------------------------------|
Intro/Verse Chords



----------|----3-------2-3-2----------------------------------|---------------|
----------|-------3----------3--------------------------------|---------------|
----------|---------------------2--------------0-------0------|---------------|
----------|--------------------------------0-------0h2--------|---------------|
----------|-3--------------------------0h2--------------------|---------------|
----------|-------------------------0-------------------------|---------------|
Inter

----------|----3-------2-3-2---------------------------------|----------------|
----------|-------3----------3-------------------------------|----------------|
----------|---------------------2--------------0-------0-----|----------------|
----------|--------------------------------0-------0h2-----2-|----------------|
----------|-3--------------------------0h2-------------------|----------------|
----------|-------------------------0------------------------|----------------|


-------|----3-------2-3-2----------3------2-------0-----0-------0-----------0-|
-------|-------3----------3----------3------3--------3-------3-----3----3-----|
-------|---------------------2--------------------------------------------0---|
-------|------------------------0------0-------x------------------------------|
-------|-3----------------------x------x-------2-----------0----------0-------|
-------|------------------------3------2-------0------------------------------|
Pre Chorus

----------0-----------0-----|-------------------------------------------------|
--3----3-----3----3------3--|-------------------------------------------------|
----------------0---0-------|-------------------------------------------------|
----------------------------|-------------------------------------------------|
-----0----------------------|-------------------------------------------------|
----------------------------|-------------------------------------------------|


------|-x---x---x---x---|-----------------------------------------------------|
------|-3---3---3---0---|-----------------------------------------------------|
------|-0---0---0---0---|-----------------------------------------------------|
------|-2---2---0---0---|-----------------------------------------------------|
------|-3---2---2---2---|-----------------------------------------------------|
------|-x---x---x---x---|-----------------------------------------------------| Chorus Chords


------|-x----|----------------------------------------------------------------|
------|-3----|----------------------------------------------------------------|
------|-0----|----------------------------------------------------------------|
------|-0----|----------------------------------------------------------------|
------|-0----|----------------------------------------------------------------|
------|-x----|----------------------------------------------------------------|
Chorus End Chord


-----|-------|------|----------|--------|-------3-0--|
-----|-------|------|----------|--------|-1-0-1------|
-----|-------|------|----------|--------|------------|
-----|-------|------|----------|--------|------------|
-----|-------|------|----------|--------|------------|
-----|-------|------|----------|--------|------------|
Verse Inter Pre Chorus Chorus PianoB|--

http://www.guitartabcreator.com
Guitar Tab Creator is intended to store guitar tab created through the tool. It currently does not support in-line text editing. Any text you place in here will be lost. If you need to comment on your tab, please use the "Tab Notes" section located below.