tyler

(/) Slide Up  (\) Slide Down  (h) Hammer On  (p) Pull Off  (b) Bend (r) Release (v) Vibrato

E|--------------------------------3------------------------------------10---------------------------
B|--------0--------------5-----------------------6--8---------------9----------11-------------7-----
G|-----------------------------3--------2----------------------------------------------11--7-----5--
D|-----2--------0-----1--------------3-----7--6------------8-----9-----------------11---------------
A|--3--------0-----1-----------------------------------10------------------11-----------------------
E|--------------------------5---------------------------------8-------------------------------------



E|--0--------4-----------------------------------------2-----------------------------------------
B|--------------------2-----6-----------------3--4--5-----------------------------4--------2-----
G|--------1--------3-----------------7-----------------------------------6-----------------------
D|-----0--------4--------------3-----------5--------------2-----4-----------6--------4-----------
A|--------------------------------5-----7--------------------2-----4--3-----------------4-----2--
E|-----------------------2-----------------------------------------------------6-----------------
http://www.guitartabcreator.com
Guitar Tab Creator is intended to store guitar tab created through the tool. It currently does not support in-line text editing. Any text you place in here will be lost. If you need to comment on your tab, please use the "Tab Notes" section located below.