Wait

(/) Slide Up  (\) Slide Down  (h) Hammer On  (p) Pull Off  (b) Bend (r) Release (v) Vibrato


E-----0-------------------3-3-3-7-7-7
B-----1-3-----------------3-3-3-7-7-7
G-----2--------2—2/4------4-4-4-8-8-8
D--2---------0------------5-5-5-9-9-9
A-0-----------------------5-5-5-9-9-9
E----------2--------------3-3-3-7-7-7

E-----0-------------------3-3-3-3-3-3-
B-----1--3----------------3-3-3-3-3-3-
G-----2---------2--0------0-0-0-0-0-0-
D--2----------0-----------0-0-0-0-0-0-
A-0-----------------------2-2-2-x-x-x-
E-----------2-------------3-3-3-2-2-2-
Guitar Tab Creator is intended to store guitar tab created through the tool. It currently does not support in-line text editing. Any text you place in here will be lost. If you need to comment on your tab, please use the "Tab Notes" section located below.