Unnamed Song

   Cadd9     G       Em7     Cadd9   G   Em7    Cadd9    G
e|--------------------------------------------------------------|
B|------------------------------------------3-----------------0-|
G|-----0-------0-------0----------0----0-----0-0---0---0-0--0-0-|
D|----2--2-2--0--0-0--2--2-2-----2----0-------2---2-0h2---------|
A|---3----3--2----2--2----2-----3----2-----------3--------------|
E|--0-------3-------0----------0----3-----00---------------3-3--|


Verse 1

Cadd9 G Em7 Cadd9 G G Cadd9 G Em7
e|-----------------------------------------------------------|
B|-------------3------------------------------------------0--|
G|----0---0-----0----0-0---0-0-----0-----------0----0------0-|
D|---2---0----2-------2-----0-----0-0--------2-----0-----2---|
A|--3---2----2------3------------2---------3------2-----2----|
E|-0---3----0-------------3-----3--------0-------3-----0-----|
Happiness, Just outside my window, Thought it'd crash,


Cadd9 G G Cadd9 G Em7 Cadd9 G
e|--------------------------------------------------------------------|
B|-------------------------------------3-3----------------------------|
G|-------0-----0----0-0-------0----0--0-0--------0--0-------------0-0-|
D|-----2-----0-----0-0-0-----2----0------------2--2--2----------0--0--|
A|---3-----2-----2----------3----2-----------3----------------2-------|
E|-0-----3-----3----------------3---0------0----------------3---------|
Blowing 80 miles an hour, Happiness, Little more like knocking,

Cadd9 G Em7
e|--------------------------------------|
B|-------------0------------------------|
G|----0----0----------0---0-------0-0---|
D|---2----0---2------2--2--2-----0-0-0--|
A|--3----2---2-----3------------2-------|
E|-0----3---0----0-------------3--------|
On your door, You just let it in,


Cadd9 G Em7 Cadd9 G Em7 Cadd9 G
e|--------------------------------------------------------------|
B|------------------------------------------3-----------------0-|
G|-----0-------0-------0----------0----0-----0-0---0---0-0--0-0-|
D|----2-------0-------2----------2----0-------2---2-0h2---------|
A|---3-------2-------2----------3----2-----------3--------------|
E|--0-------3-------0----------0----3-----00---------------3-3--|


Verse 2

Cadd9 G Em7 Cadd9 G G Cadd9 G Em7
e|-------------------------------------------------------|
B|------------3------------------------------------------|
G|----0---0----0----0-0----0-0------0-0-----0---0---0-0--|
D|---2---0---2-------2------0------0-0-0---2---0---2-2-2-|
A|--3---2---2-----3---------------2-------3---2---2------|
E|-0---3---0-------------3-------3-------0---3---0-------|
Happiness, Feels alot like sorrow, Let it be,

Cadd9 G
e|----------------------------------|
B|----------------------------------|
G|------------0-0-------------0-0---|
D|-----------2-2-2-----------0-0-0--|
A|----------3---------------2-------|
E|---------0---------------3--------|
You can't make it come or go,

e|---------------------------------------------------------|
B|------------0-----------------------------------------3--|
G|----0---0----0-----0-0----0-0---------0-------0---0----0-|
D|---2---0---2--------2------0---------0-0-0---2---0---2---|
A|--3---2---2------3------------------2---2---3---2---2----|
E|-0---3---0--------------3----------3-------0---3---0-----|
You are gone, Not for good but for now, Gone for now,

Cadd9 G
e|-------------------------------------|
B|-------------------------------------|
G|--------0-0-------------0-0------0-0-|
D|-------2-2-2-----------0-0-0---0-0-0-|
A|------3---------------2------2----2--|
E|-----0---------------3---------------|
Feels alot like gone for good,

Cad9 G G Cadd9 G Cadd9
e|----------------------------------------------------|
B|----------------------0-----------------------------|
G|----0---0---0---0---0--0---0-----0-0---0-0--0-0-----|
D|---2-0h2---0-0h2---0-0--0-2-----2-0---0-0--2-2------|
A|--3-------2-------2------------3-----2----3---------|
E|-0-------3-------3------------0-----3---------------|

Cadd9 G Em7 Cadd9 G
e|--------------------------------------------------------|
B|------------3-------------------------------------------|
G|--0---0-----0------0--0-0-----0-0-0-0-------------------|
D|-2---2----------0h2--2---2---0-0-0-0-0------------------|
A|----3---------------3-------2---------------------------|
E|---0---0-0-0---0-----------3----------------------------|
Happiness, Is a Firecracker sittin on my headboard,

Cadd9 G G Cadd9 G Em7
e|--------------------------------------------------------|
B|------------------------3-----------------------3-------|
G|----0---0------0---0--------0-0---------0---0-------0---|
D|---2-0h2-2------0h2-2----0h2-----------2---0-----0h2----|
A|--3-----------------------------------3---2-------------|
E|-0----------3-3------3-3-------------0---3---0-0--------|
Happiness, Was never mine to hold, careful child,

Cadd9 G Cadd9 G Em7
e|-------------------------------------------------------|
B|----------------------------------------------3--------|
G|----0-0----0-0-0-0--------------------0---0-------0----|
D|---2-0------0-0-0-0------------------2---0-----0h2-----|
A|--3---------------------------------3---2--------------|
E|-0--------3------------------------0---3---0-0---------|
Light the fuse and get away, Cause happiness,

Cadd9 G
e|-------------------------------------------------|
B|-------------------------------------------------|
G|----0---0---0---0---0---0------------------------|
D|---2-0h2-0h2-0h2-0h2---0-------------------------|
A|--3-------------------2--------------------------|
E|-0-------------------3---------------------------|
Throws a shower of sparks,

Cadd9 G Em7
e|---------------------------------------------|
B|---------------------------------------------|
G|----0---0---0---0---0---0---0---0------------|
D|---2---0-0h2-0h2-0h2-0h2-0h2-0h2-------------|
A|--3---2--------------------------------------|
E|-0---3---------------------------------------|
Yeeeeeeeeeeaaaaaaaaaaahhhhhhhhhhhhhhh,

Cadd9 Cadd9
e|----------------------------------------|
B|--------0---0---0---0-------------------|
G|---0---0--------------------------------|
A|--2---2--0h2-0h2-0h2--------------------|
D|-3---3----------------------------------|
E|----0-----------------------------------|
Yeeeeeeeeeeeaaaaaaaaaaaahhhhhhhhhhhh,


At this point the piano joins in in which you could have another guitar just play
chords the rest of the song. Chord version one is a good chord tab for that.


Cadd9 G Em7 Cadd9 G
e|---------------------------------------------------------------|
B|------------3--------------------------------------------------|
G|----0---0---------0---0---0---0---------0---0---0---0---0------|
D|---2---0---------2-0h2-0h2-0h2-0h2-----0---2---0-0h2-0h2-0h2---|
A|--3---2---------3---------------------2---3---2----------------|
E|-0---3---0-0---0-------------------3-3---0---3-----------------|
Happiness, Damn near destroys you, Breaks your faith,

Cadd9 G Cadd9 G Em7
e|----------------------------------------------------|
B|--------0-------------0------------------3----------|
G|----0---------0---0--------------0---0--------------|
D|-0h2-0h2-----0-0h2-0h2----------2---0---2-----------|
A|------------2------------------3---2---2------------|
E|---------3-3------------------0---3---0-------------|
To pieces on the floor, So you tell yourself,


Cadd9 G Cadd9 G Em7 Cadd9 G
e|-----------------------------------------------------------|
B|---------------------0------------3------0---0---3---------|
G|----------0---------------0---0-------------------0-0------|
D|-------2----------0------2---0---2------2-0h2-0h2--0-------|
A|----3----------2--------3---2---2------3-------------------|
E|-0----------3----------0---3---0------0--------------------|
That's enough for now, Happiness, Has a violent roar,

Cadd9 G Em7 Cadd9 G
e|-------------------------------------------------|
B|------------3-----------------------0------------|
G|----0---0-------------0---------------0---0------|
D|---2---0---2--------2---0--------0------0--------|
A|--3---2---2-------3-----------2------------------|
E|-0---3---0------0----------3---------------------|
Happiness, Is like the old man told me,

CAdd9 G Em7 Cadd9 G
e|---------------------------------------------|
B|------------3---------0-----------3----------|
G|----0---0--------------------------0---------|
D|---2---0---2--------2----------0-------------|
A|--3---2---2-------3----------2---------------|
E|-0---3---0------0----------3-----------------|
Look for it, And you'll never find at all,

CAdd9 G Em7 Cadd9 G
e|---------------------------------------------|
B|------------3---------0-----------3----------|
G|----0---0--------------------------0---------|
D|---2---0---2--------2----------0-------------|
A|--3---2---2-------3----------2---------------|
E|-0---3---0------0----------3-----------------|
Let it go, Live your life and lave it,

Cadd9 G Em7 Cadd9
e|----------------------------------------------------|
B|------------3---------------0-----------------------|
G|----0---0---------------------0---------------------|
D|---2---0---2--------------2-----0-------------------|
A|--3---2---2-------------3---------------------------|
E|-0---3---0------------0-----------------------------|
Then one day, You'll wake up and she'll be,


G
Home,

Cadd9 G Em7
Home,

Cadd9 G
She'll be,

CAdd9 G Em7
She'll be,

Cadd9 G
She'll be home,

Cadd9 G Em7
She'll be home,

Cadd9 G
She'll be home,

Cadd9 G Em7
She'll be home,

Cadd9 G
Yeah,

Cadd9 G Em7
She will be home,

Cadd9 G
Yeah,

Cadd9 G Em7
She will be home,

Cadd9 G
Yeah,

Cadd9 G Em7
She'll be home,

Cadd9 G
She'll be home,

Cadd9 G
She'll be.
Guitar Tab Creator is intended to store guitar tab created through the tool. It currently does not support in-line text editing. Any text you place in here will be lost. If you need to comment on your tab, please use the "Tab Notes" section located below.