Paradise - Coldplay

PARADISE - COLDPLAY

PIANO INTRO

guitar 1(play along with the piano)
e|----------------------------------------------------------------------------|
B|----------------------------------------------------------------------------|
G|------7-7-7-7-7-7-7-9-10-10-10-10-10-10-10-12-12-12-12-12-12-12-12-17-17-17-|
D|------5-5-5-5-5-5-5-7-8--8--8--8--8--8--8--10-10-10-10-10-10-10-10-15-15-15-|
A|----------------------------------------------------------------------------|
E|----------------------------------------------------------------------------|

e|----------------|
B|----------------|
G|-15-15-15-15-15-|
D|-17-17-17-17-17-|
A|----------------|
E|----------------|

guitar 2(slightly later)
e|-----------------------------------------------|
B|-----------------------------------------------|
G|-----17-19--21--19--17--14----12-14------------|
D|--17----------------------------------14-12-10-|
A|-----------------------------------------------|
E|-----------------------------------------------|

INTRO

guitar 1
e|--------|----------|--------|---------|
B|--------|----------|--------|---------|
G|--------|----------|--------|-5-5-5-5-|
D|-5--5-5-|--8-8-8-8-|-3--3-3-|-5-5-5-5-|
A|-5--5-5-|--8-8-8-8-|-3--3-3-|-3-3-3-3-|
e|-3--3-3-|--6-6-6-6-|-1--1-1-|---------|

guitar 2
e|--3-|--3-|--1-|--3-|
B|--3-|--3-|--1-|--5-|
G|--3-|--3-|--2-|--5-|
D|----|----|----|----|
A|----|----|----|----|
E|----|----|----|----|

VERSE

in live versions Guy plays this

e|-20-20-20-20-20-20-20-20-20-20-20-20-20-20-20-20-20-ect|
B|-------------------------------------------------------|
G|-------------------------------------------------------|
D|-------------------------------------------------------|
A|-------------------------------------------------------|
E|-------------------------------------------------------|

When Chris gets to the first 'paradise' (an octave lower than the chorus) you go....


guitar 1

"para.... para.....paradise"
e|---------------------------|
B|---------------------------|
G|---------------------------|
D|---------------------------|
A|---------------------------|
E|-17-15---17-15----17-15-15-|

guitar 2 (this bit is palm muted)

"para..para...paradise...para...para...paradise"
e|----6---6---6---6---6---6---6-------8---8----|
B|---8---8---8---8---8---6---6---6---8---8---8-|
G|--7---7---7---7---7---7---7---7---9---9---9--|
D|---------------------------------------------|
A|---------------------------------------------|
E|---------------------------------------------|

CHORUS

Same as the intro

BRIDGE

guitar 1&2
e|----------|-----------|--------------|--------------|
B|----------|-----------|--------------|--------------|
G|----------|-----------|--------------|--------------|
D|-5--5-5-7-|-8--8-8-10-|-12--12-12-14-|-15--15-15-15-|
A|----------|-----------|--------------|--------------|
E|-3--3-3-5-|-6--6-6-8--|-10--10-10-12-|-13--13-13-13-|


(later in the bridge)

guitar 2
e|-----------------------------------------------|
B|-----------------------------------------------|
G|-----17-19--21--19--17--14----12-14------------|
D|--17----------------------------------14-12-10-|
A|-----------------------------------------------|
E|-----------------------------------------------|

CHORUS

Same as the intro

SOLO

e|--6-6-6-6-6-6-6-|-5--5--5--5-|--5-5-5-5-5-5-5-|-3--3--3--3-|
B|--6-6-6-6-6-6-6-|-6--6--6--6-|--6-6-6-6-6-6-6-|-4--4--4--4-|
G|----------------|------------|----------------|------------|
D|----------------|------------|----------------|------------|
A|----------------|------------|----------------|------------|
E|----------------|------------|----------------|------------| just repeated


END.
















Guitar Tab Creator is intended to store guitar tab created through the tool. It currently does not support in-line text editing. Any text you place in here will be lost. If you need to comment on your tab, please use the "Tab Notes" section located below.