Wha Are You Afraid Of

(/) Slide Up  (\) Slide Down  (h) Hammer On  (p) Pull Off  (b) Bend (r) Release (v) Vibrato


E|--------------------------------------------------
B|--------------------------------------------------
G|--------------------------------------------------
D|--------------------------------------7--7--------
A|--------------------8--8--8--5--5--5--------8--8--
E|--8--8--8--5--5--5--------------------------------



E|---------------------------------------------------
B|---------------------------------------------------
G|---------------------------------------------------
D|---------------------------------------------------
A|--------------------8--8--8------------------------
E|--8--8--8--5--5--5-----------3p0--0--3p0--0--3--5--



E|---------------------------------------------------
B|---------------------------------------------------
G|---------------5----------------9--12----17--14----
D|------------3--------------7-----------------------
A|-------5--------------8----------------------------
E|--0------------------------------------------------



E|------------------------------
B|------------------------------
G|------------------------------
D|--3------7------5------7------
A|--0------3------3------5------
E|--0------3------7------5------



E|----------------------------------------------------------
B|----------------------------------------------------------
G|----------------------------------------------------------
D|--------------------------7--8--7-------------------------
A|--------------5--0--5--8-----------10--8--7--8--7---------
E|--3--0--3--7---------------------------------------10--8--



E|---------------
B|---------------
G|---------------
D|--10----7------
A|--8-----5------
E|--7-----8------



E|---------------------------------------------------------
B|---------------------------------------------------------
G|---------------------------------------------------------
D|--------------------------10--12--10---------------------
A|--------------7--0--7--8--------------13--12--10--8--12--
E|--5--0--5--8---------------------------------------------



E|------------------------------------------
B|------------------------------------------
G|------------------------------------------
D|-------------------3--------7----------7--
A|----------------------------------7----5--
E|--0----0--0--0--0-----0--3-----5-------8--



E|-----------------------------------------------------------------
B|-----------------------------------------------------------------
G|-----------------------------------------------------------------
D|-----------------------------------------------------------------
A|-----------------------------------------------------------------
E|-0--0-0-0--0--0--0--0-0-0--0--0--0-0-0--0---0--0-0-0--0-0-0--0-0-



E|-12-13-12-------15/17\15-
B|-------------13----------
G|----------14-------------
D|-------------------------
A|-------------------------
E|-------------------------



E|-------------------------------------------------------------------------------
B|-------------------------------------------------------------------------------
G|-------------12-------------12-12/14\12-------------12-------------12-12/14\12-
D|-------10-------------10----------------------10-------------10----------------
A|-10/12----12----10/12----12-------------10/12----12----10/12----12-------------
E|-------------------------------------------------------------------------------



E|-----------------------------
B|-----------------------------
G|-------9---------10-10/12\10-
D|-----7---------7-------------
A|---8---------8---------------
E|-0---------0-----------------



E|--------------------------------------------------------------------
B|----------------------------------------------------12--------------
G|-------------12-------------12-12/14\12----------------12-10-9-9h10-
D|-------10-------------10----------------------10--------------------
A|-10/12----12----10/12----12-------------10/12----12-----------------
E|--------------------------------------------------------------------



E|---------------------------
B|---------------------------
G|-------9-------10-10/12\10-
D|-----7-------7-------------
A|---8-------8---------------
E|-0-------0-----------------



E|----------------------
B|----12------13----17--
G|----12------10----14--
D|----10------10----14--
A|----12----------------
E|------------12----15--



E|----------------
B|------------8---
G|--5----7----9---
D|--7----9----10--
A|--3----5----7---
E|--3----5----7---



E|----------------
B|------------8---
G|--2----5----9---
D|--3----7----10--
A|--0----3----7---
E|--0----3----7---



E|--------------------------
B|--------------------------
G|--7--------------7/9------
D|-----9----------------10--
A|--------5-----5-----------
E|-----------5--------------



E|------7---------------7h8--
B|--8------8-----------------
G|--9---------9------9-------
D|--10-----------10----------
A|--7------------------------
E|--7------------------------



E|-----0-----------------0-----
B|--------0-----------0-----0--
G|--2--------2-----2-----------
D|--3-----------3--------------
A|--0--------------------------
E|--0--------------------------



E|-----------------------------
B|-----------------------------
G|--5--7--------------7/9------
D|--7-----9----------------10--
A|--3--------5-----5-----------
E|--3-----------5--------------
http://www.guitartabcreator.com
Guitar Tab Creator is intended to store guitar tab created through the tool. It currently does not support in-line text editing. Any text you place in here will be lost. If you need to comment on your tab, please use the "Tab Notes" section located below.