Santa

(/) Slide Up  (\) Slide Down  (h) Hammer On  (p) Pull Off  (b) Bend (r) Release (v) Vibrato
E|---------------------------7--8--8----------------------------------------
B|--8---------8--8----8--10---------------8---------8--8--8--10--8----------
G|-----9--10---------------------------------9--10------------------10--10--
D|--------------------------------------------------------------------------
A|--------------------------------------------------------------------------
E|--------------------------------------------------------------------------



E|-----------------------------
B|-----8-----------------------
G|--9---------9--7--10--------- Repeat
D|--------10------------9--10--
A|-----------------------------
E|-----------------------------





E|--8--10--8--7--8------------8--10--8--8--7--8--
B|------------------10--10---------------------10
G|-----------------------------------------------
D|-----------------------------------------------
A|-----------------------------------------------
E|-----------------------------------------------



E|--10--12--10--9--10--7--7--7--7--8--10--8--7---------
B|----------------------------------------------10--8--
G|-----------------------------------------------------
D|-----------------------------------------------------
A|-----------------------------------------------------
E|-----------------------------------------------------



E|-----------------------------7--8--8----------------------------------------
B|--8---------8--8------8--10---------------8---------8--8--8--10--8----------
G|-----9--10-----------------------------------9--10------------------10--10--
D|----------------------------------------------------------------------------
A|----------------------------------------------------------------------------
E|----------------------------------------------------------------------------



E|--------------------------10--8--
B|-----8---------------------------
G|--9---------9--7--10-------------
D|--------10-----------------------
A|---------------------------------
E|---------------------------------
http://www.guitartabcreator.com
Guitar Tab Creator is intended to store guitar tab created through the tool. It currently does not support in-line text editing. Any text you place in here will be lost. If you need to comment on your tab, please use the "Tab Notes" section located below.