Bond

(/) Slide Up  (\) Slide Down  (h) Hammer On  (p) Pull Off  (b) Bend (r) Release (v) Vibrato

E|-----0-----0-----0-----0-----0-----0-----0-----0-----0-----0-----0-----0-----0-----0-----0-----0--
B|--------------------------------------------------------------------------------------------------
G|--4-----5-----6-----5-----4-----5-----6-----5-----4-----5-----6-----5-----4-----5-----6-----5-----
D|--------------------------------------------------------------------------------------------------
A|--------------------------------------------------------------------------------------------------
E|--------------------------------------------------------------------------------------------------



E|--------------------------------------------------------------------------------------------------
B|--------------------------------------------------------------------------------------------------
G|--------------------------------------------------------------------------------------------------
D|--------------------------------------------------------------------------------------------------
A|--------------------------------------------------------------------------------------------------
E|--0--2--2--2--2--0--0--0--0--3--3--3--3--2--2--0--0--2--2--2--2--0--0--0--0--3--3--3--3--2--2--0--



E|-----------------------------------------------------------------
B|-----------------------------------------------------------------
G|-----------------------------------------------------------------
D|-----------------------------------------------------------------
A|--------------------------------------------------3--2-----------
E|--0--2--2--2--2--0--0--0--0--3--3--3--3--2--2--0--------4--2--4--



E|--------------------------------------------------------------------------
B|--------------------------------------------------------------------------
G|--------8--7--------------------------------8--7--------------------------
D|-----5--------5--8--9--5--4--------------5--------5--8--9--5--4-----------
A|--7-----------------------------7--4--7-----------------------------6--7--
E|-----------------------------7-----------------------------------7--------



E|----------------------------------------------------------------------------
B|----------------------------------------------------------------------------
G|----------------------------------------------------------------------------
D|----------------------------------------------------------------------------
A|--7--7--7--9--7--9--10--10--9--7--9--7--7--7--9--7--9--10--10--10--9--7--9--
E|----------------------------------------------------------------------------



E|---------------------------------------------------------------------------
B|-----------------------------------------------------------------------7---
G|-----------------------------------------------------------------------8---
D|--------------------------------------9--9-----9--9-----9--9--9--9--9--9---
A|--7--7--9--7--9--10--10--10--9--7--9-----------------------------------10--
E|--------------------------------------------7--------7-----------------0---
http://www.guitartabcreator.com
Guitar Tab Creator is intended to store guitar tab created through the tool. It currently does not support in-line text editing. Any text you place in here will be lost. If you need to comment on your tab, please use the "Tab Notes" section located below.