the DP

(/) Slide Up  (\) Slide Down  (h) Hammer On  (p) Pull Off  (b) Bend (r) Release (v) Vibrato


E|------------------------------------------------------------------------------------------------
B|------------------------------------------------------------------------------------------------
G|--------------------------------6h7p6-----------------------------------------------------------
D|-----------4--1--0--------5--8---------8--5--------------------------------4--------4-----4-----
A|--------5-----------5--6---------------------6--5--------------5--------------------------------
E|--0--1---------------------------------------------8--7--0--1-----0----b1-----0--1-----1-----1--



E|-----------------------------------------------------------------------------------------------
B|-----------------------------------------------------------------------------------------------
G|-----------------------------------------------------------------------------------------------
D|-----------------------------------------------------------------------------------------------
A|--6--------6--------5----6--------6--------5---------------6--5--------6--5--------------------
E|-----0--0-----0--0----------0--0-----0--0---------1--------------8--7--------8--7--5--7--8--7--



E|----------------------------------------
B|----------------------------------------
G|----------------------------------------
D|----------------------------------------
A|--6--5--------6--5----------------------
E|--------8--0--------8--0----5--7--8--7--
http://www.guitartabcreator.com
Guitar Tab Creator is intended to store guitar tab created through the tool. It currently does not support in-line text editing. Any text you place in here will be lost. If you need to comment on your tab, please use the "Tab Notes" section located below.