Space Race

(/) Slide Up  (\) Slide Down  (h) Hammer On  (p) Pull Off  (b) Bend (r) Release (v) Vibrato


E|-----------------------------------------------
B|-----------------------------------------------
G|-----------------------------------------------
D|--------------------------------------5--4-----
A|-----5--6--7-----5--6--7-----5--6--7--------5--
E|--0-----------0-----------0--------------------



E|-----------------------------------------------------------------------------------
B|--------7--8--7--------------7--8--7--------------7--8--7--------------7--8--7-----
G|-----------------9--------------------9--------------------9--------------------9--
D|-----------------------------------------------------------------------------------
A|--7--7--------------7--7--7--------------------------------------------------------
E|-----------------------------------------7--7--7--------------7--7--7--------------



E|--------------------------------
B|--------------------------------
G|--------------------------------
D|-----6--7--6--------6--7--6-----
A|--------------5--------------5--
E|--0--------------0--------------



E|------------------------------7--8--7--
B|---------------------7--8--7-----------
G|------------8--9--8--------------------
D|--9--10--9-----------------------------
A|---------------------------------------
E|---------------------------------------



E|----------------------------------------------------------11----------
B|------------------------------------------12--13--12--13------13--12--
G|----------------------------------12----------------------------------
D|----------------------11--12--14--------------------------------------
A|--------------12--14--------------------------------------------------
E|--12--14--15----------------------------------------------------------
http://www.guitartabcreator.com
Guitar Tab Creator is intended to store guitar tab created through the tool. It currently does not support in-line text editing. Any text you place in here will be lost. If you need to comment on your tab, please use the "Tab Notes" section located below.