lavender town theme

(/) Slide Up  (\) Slide Down  (h) Hammer On  (p) Pull Off  (b) Bend (r) Release (v) Vibrato

E|-----------------------------------------------------------------------------------
B|-----------------------------------------------------------------------------------
G|--12--12--9--9--12--11--9--16--6--6--12--12--11--11--16--12--------11--16--17--17--
D|-----------------------------------------------------------------------------------
A|--10--10--7--7--10--9---7--14--4--4--10--10--9---9---14--10--------9---14--15--15--
E|-----------------------------------------------------------------------------------



E|---------------------------------------------------------------------------
B|---------------------------------------------------------------------------
G|--12--12--9--9--12--11--9--16--6--6--12--12--11--11--16--12--11--16--6--6--
D|---------------------------------------------------------------------------
A|--10--10--7--7--10--9---7--14--4--4--10--10--9---9---14--10--9---14--4--4--
E|---------------------------------------------------------------------------



E|--
B|--
G|--
D|--
A|--
E|--
http://www.guitartabcreator.com
Guitar Tab Creator is intended to store guitar tab created through the tool. It currently does not support in-line text editing. Any text you place in here will be lost. If you need to comment on your tab, please use the "Tab Notes" section located below.