Seeking me out

(/) Slide Up  (\) Slide Down  (h) Hammer On  (p) Pull Off  (b) Bend (r) Release (v) Vibrato


E|----------------------------------------------------------------------
B|-----------3--2h3-----------------3--------------3-----------3--------
G|--------4----------4-----------4-----4--------4-----------0-----4-----
D|-----4----------------4-----4--------------4-----------4--------------
A|--2----------------------0--------------------------------------------
E|----------------------------------------3-----------2-----------------



E|-----------------------------------------------------------
B|-----------------------------------------------------------
G|--2--------------------------------------------------------
D|-----4--------4-----------4-----------7-----------9--------
A|-----4-----4-----4-----4-----4-----7-----7-----9-----9-----
E|--------2-----------2-----------5-----------7--------------
http://www.guitartabcreator.com
Guitar Tab Creator is intended to store guitar tab created through the tool. It currently does not support in-line text editing. Any text you place in here will be lost. If you need to comment on your tab, please use the "Tab Notes" section located below.