Sitting on top of the World

(/) Slide Up  (\) Slide Down  (h) Hammer On  (p) Pull Off  (b) Bend (r) Release (v) Vibrato
E|---------------------13b15--11h13p11------11--13--11------11----------------------------------
B|-------------13--13-------------------13--------------13------13--11------11--13--11------11--
G|---------12-----------------------------------------------------------12--------------12------
D|----------------------------------------------------------------------------------------------
A|--14/15---------------------------------------------------------------------------------------
E|----------------------------------------------------------------------------------------------



E|-------------------------------------------------------------------------------------------
B|-------------------------------------------------------------------------------------------
G|-12\10-8-10p8----8-10-8----8---------------------------------------------------------8-----
D|--------------10--------10---10-8----8-10-8----8-------------------------8----8-9-10-------
A|----------------------------------10--------10---10\8-6-8p6---6-8-6-8/10---10--------------
E|------------------------------------------------------------8------------------------------



E|---------8-----------------8-----------------------11----11----11-13b15---13b15-11-13-13b15-
B|-----------8-8---------------8-8-11/13-11----11-13----13----13------------------------------
G|-8-10b12-------12r10-10b12----------------12------------------------------------------------
D|--------------------------------------------------------------------------------------------
A|--------------------------------------------------------------------------------------------
E|--------------------------------------------------------------------------------------------



E|-13-11-13p11----11-13-11----11---------------
B|-------------13----------13----13---13-11-13-
G|---------------------------------------------
D|---------------------------------------------
A|---------------------------------------------
E|---------------------------------------------
http://www.guitartabcreator.com
Guitar Tab Creator is intended to store guitar tab created through the tool. It currently does not support in-line text editing. Any text you place in here will be lost. If you need to comment on your tab, please use the "Tab Notes" section located below.