Spanish Harlem

(/) Slide Up  (\) Slide Down  (h) Hammer On  (p) Pull Off  (b) Bend (r) Release (v) Vibrato
E|------------------------------------------------------------------------------------
B|-----------------4--6--4h6p6--------------------4--6--4--6-----5--3-----5--3--------
G|--4--4--5--7--7---------------7--4--4--5--7--7--------------7--------4--------4-----
D|------------------------------------------------------------------------------------
A|------------------------------------------------------------------------------------
E|------------------------------------------------------------------------------------



E|----------------------------------------------------------------------------------
B|--5--3-----5--3-----5--3-----5--3-------------------------------------------------
G|--------4--------4--------4--------4----------2-----------------------------------
D|--------------------------------------0--2/4-----------4--5--4--7--5--4--5--4-----
A|-------------------------------------------------7--7--------------------------7--
E|----------------------------------------------------------------------------------



E|--------------2--2--3--5--5--7--9--7--5--2--2--3--5--5--7--9--7--5--12--10------12--10--12-----
B|--------------3--3--5--7--7--8--8--8--7--3--3--5--7--7--8--8--8--7----------12-----------------
G|-----------------------------------------------------------------------------------------------
D|-----------------------------------------------------------------------------------------------
A|--0--0--2--0-----------------------------------------------------------------------------------
E|-----------------------------------------------------------------------------------------------



E|--12--10------12--10------12--10------12--10------12--10------12--10-------------------
B|----------12----------12----------12----------12----------12----------12-----------10--
G|--------------------------------------------------------------------------7--7/11------
D|---------------------------------------------------------------------------------------
A|---------------------------------------------------------------------------------------
E|---------------------------------------------------------------------------------------



E|-----------------5--------------5--------------
B|--5--5--7--8--7-----8--7--8--7-----------------
G|-----------------------------------------4--7--
D|-----------------------------------7--7--------
A|-----------------------------------------------
E|-----------------------------------------------
http://www.guitartabcreator.com
Guitar Tab Creator is intended to store guitar tab created through the tool. It currently does not support in-line text editing. Any text you place in here will be lost. If you need to comment on your tab, please use the "Tab Notes" section located below.