song 1 solo 2

(/) Slide Up  (\) Slide Down  (h) Hammer On  (p) Pull Off  (b) Bend (r) Release (v) Vibrato


E|-----------------------------------------------------------------------------------11----------9--
B|----------------10------10--12b12-----------------------------------------------9----------11-----
G|--12--12b14p12------12-------------10b10------10--10b12--9------9--11b9--8--10---------10---------
D|------------------------------------------12----------------11------------------------------------
A|--------------------------------------------------------------------------------------------------
E|--------------------------------------------------------------------------------------------------



E|---------8----------10--------
B|------9---------11------------
G|--10--------10----------------
D|------------------------------
A|------------------------------
E|------------------------------
http://www.guitartabcreator.com
Guitar Tab Creator is intended to store guitar tab created through the tool. It currently does not support in-line text editing. Any text you place in here will be lost. If you need to comment on your tab, please use the "Tab Notes" section located below.