song 1

(/) Slide Up  (\) Slide Down  (h) Hammer On  (p) Pull Off  (b) Bend (r) Release (v) Vibrato

E|--------------7--------------------------------7-----------------------------------------------------
B|-----10--7h9--------10--9p7-----------10--7h9-----------10--9p7----------3h5p3---------------3--5/7--
G|--7--------------7-----------9--9--7--------------9--7-----------9--5b5---------5b5----5-------------
D|------------------------------------------------------------------------------------------5----------
A|-----------------------------------------------------------------------------------------------------
E|-----------------------------------------------------------------------------------------------------



E|-------------------11----------9---------8----------9b9----------16------17------12-----
B|----------------9----------11---------9---------11-----------14------14------14---------
G|--7b9p7-----10---------10---------10--------10-----------15-----------------------------
D|---------7------------------------------------------------------------------------------
A|----------------------------------------------------------------------------------------
E|----------------------------------------------------------------------------------------
http://www.guitartabcreator.com
Guitar Tab Creator is intended to store guitar tab created through the tool. It currently does not support in-line text editing. Any text you place in here will be lost. If you need to comment on your tab, please use the "Tab Notes" section located below.