Dolama Dolamayi

(/) Slide Up  (\) Slide Down  (h) Hammer On  (p) Pull Off  (b) Bend (r) Release (v) Vibrato


E|--0--0--0---------------0------------------------------0--5--3--1------0------------------0--
B|---------------3--1--3---------1------------------------------------------3------3--1--3-----
G|----------------------------------3--2----2--------------------------------------------------
D|---------------------------------------------------------------------------------------------
A|---------------------------------------------------------------------------------------------
E|---------------------------------------------------------------------------------------------



E|--------------------------5----5------5--5------5--5------5--3--
B|--1-------------------------------------------------------------
G|-----3--2----2--------------------------------------------------
D|----------------------------------------------------------------
A|----------------------------------------------------------------
E|----------------------------------------------------------------



E|--3--3--1------1--1------1--1--3------0------------0------------------0--------------------
B|-----------------------------------------3------3-----3------3--1--3---------1-------------
G|--------------------------------------------------------------------------------3--2----2--
D|-------------------------------------------------------------------------------------------
A|-------------------------------------------------------------------------------------------
E|-------------------------------------------------------------------------------------------



E|-----0------------------0------------------------5----5----5--5----5--5----5--3--
B|--3-----3------3--1--3---------1-------------------------------------------------
G|----------------------------------3--2----2--------------------------------------
D|---------------------------------------------------------------------------------
A|---------------------------------------------------------------------------------
E|---------------------------------------------------------------------------------



E|--3--3--1------1--1------1--1--3------0------------0------------------0--------------------
B|-----------------------------------------3------3-----3------3--1--3---------1-------------
G|--------------------------------------------------------------------------------3--2----2--
D|-------------------------------------------------------------------------------------------
A|-------------------------------------------------------------------------------------------
E|-------------------------------------------------------------------------------------------



E|-----0------------------0------------------------0--0------------------0--------------------
B|--3-----3------3--1--3---------1-----------------------3------3--1--3---------1-------------
G|----------------------------------3--2----2--------------------------------------3--2----2--
D|--------------------------------------------------------------------------------------------
A|--------------------------------------------------------------------------------------------
E|--------------------------------------------------------------------------------------------



E|--0--0------------------0------------------------0--0------------------0--------------------
B|--------3------3--1--3---------1-----------------------3------3--1--3---------1-------------
G|----------------------------------3--2----2--------------------------------------3--2----2--
D|--------------------------------------------------------------------------------------------
A|--------------------------------------------------------------------------------------------
E|--------------------------------------------------------------------------------------------



E|--0--0------------------0--------------------
B|--------3------3--1--3---------1-------------
G|----------------------------------3--2----2--
D|---------------------------------------------
A|---------------------------------------------
E|---------------------------------------------
http://www.guitartabcreator.com
Guitar Tab Creator is intended to store guitar tab created through the tool. It currently does not support in-line text editing. Any text you place in here will be lost. If you need to comment on your tab, please use the "Tab Notes" section located below.