Berklee

(/) Slide Up  (\) Slide Down  (h) Hammer On  (p) Pull Off  (b) Bend (r) Release (v) Vibrato


E|-----------------------|-----------------------|-----------------------|--------------1--
B|-----------------------|--------------3--------|-----------3--5--3-----|--------3--5-----
G|--------2--3--5--3--2--|-----2--3--5-----5--3--|--2--3--5-----------5--|--3--5-----------
D|--3--5-----------------|--5--------------------|-----------------------|-----------------
A|-----------------------|-----------------------|-----------------------|-----------------
E|-----------------------|-----------------------|-----------------------|-----------------



E|-----------------------|-----------------------|-----------------------|-----------------
B|-----------------------|-----------------------|-----------------------|-----------------
G|-----------------------|-----------------------|-----------------------|-----------------
D|-----------------------|-----------------------|--------------2--------|-----------2--3--
A|-----------1--3--1-----|--------1--3--5--3--1--|-----1--3--5-----5--3--|--1--3--5--------
E|--1--3--5-----------5--|--3--5-----------------|--5--------------------|-----------------



E|--5--3--1--3--5--1--|--3--1-----1--3-----|--1-----------1-----|-----------------
B|--------------------|--------5--------5--|-----5--3--5-----3--|-----------------
G|--------------------|--------------------|--------------------|--5--3--2--------
D|--------------------|--------------------|--------------------|-----------5--3--
A|--------------------|--------------------|--------------------|-----------------
E|--------------------|--------------------|--------------------|-----------------



E|--------------------|--------------------|--------------------|-----------------
B|--------------------|--------------------|--------------------|-----------------
G|--2-----------2-----|--------------------|--------------------|-----------------
D|-----5--3--5-----3--|--5--3--2--3--5--2--|--3--2-----2--3-----|-----------------
A|--------------------|--------------------|--------5--------5--|--3--1-----------
E|--------------------|--------------------|--------------------|--------5--3--1--
http://www.guitartabcreator.com
Guitar Tab Creator is intended to store guitar tab created through the tool. It currently does not support in-line text editing. Any text you place in here will be lost. If you need to comment on your tab, please use the "Tab Notes" section located below.