RIFF 6 (EXT OF RIFF 5)

(/) Slide Up  (\) Slide Down  (h) Hammer On  (p) Pull Off  (b) Bend (r) Release (v) Vibrato


E|-----------------------------------|-----------------------------------|--
B|-----------------------------------|-----------------------------------|--
G|-----------------------------------|-----------------------------------|--
D|-----------------------------------|-----------------------------------|--
A|--5--5--4--5-----------3--6--5--3--|--5--5--4--5-----------3--6--5--3--|--
E|--------------3--5--6--------------|--------------3--5--6--------------|--



E|-----------------------------------|-----------------------------------
B|-----------------------------------|-----------------------------------
G|-----------------------------------|-----------------------3--2--------
D|-----------------------------------|-----------------------------3-----
A|--5--5--4--5-----------3--6--5--3--|--------------------5-----------5--
E|--------------3--5--6--------------|--6--6--6--3--5--6-----------------
http://www.guitartabcreator.com
Guitar Tab Creator is intended to store guitar tab created through the tool. It currently does not support in-line text editing. Any text you place in here will be lost. If you need to comment on your tab, please use the "Tab Notes" section located below.