riff 1, guitar 2

(/) Slide Up  (\) Slide Down  (h) Hammer On  (p) Pull Off  (b) Bend (r) Release (v) Vibrato


E|------------------------------------------------------------------------------------
B|--------------------------------------5---------------------------------------------
G|-----------------------------------------3------------------------------------------
D|-----------------------------------7--------4--4--4--4-----------7/8--7h8-----7-----
A|--------------------------------7-----------------------7--9--7------------9--------
E|--3--3--3--3--3--3--3--3--3--3------------------------------------------------------



E|---------------------------------------------------------------------------------
B|---------------------------------------------------------------------------------
G|---------------------------------------------------------------------------------
D|--5--5--5--5--5--5--5--5--5--5-----5----------------------------0h1--0-----------
A|---------------------------------------------------------------------------0-----
E|--------------------------------7-----6--5--3--4--2--0--2/3--2----------2-----3--
http://www.guitartabcreator.com
Guitar Tab Creator is intended to store guitar tab created through the tool. It currently does not support in-line text editing. Any text you place in here will be lost. If you need to comment on your tab, please use the "Tab Notes" section located below.