riff 1, guitar 1

(/) Slide Up  (\) Slide Down  (h) Hammer On  (p) Pull Off  (b) Bend (r) Release (v) Vibrato


E|------------------------------------------------------------------------------------------------
B|------------------------------------------------------------------------------------------------
G|------------------------------------------------------------------------------------------------
D|--------------------------------------------4--4--4--4-----4-----4/5----------------------------
A|--------------------------------7-----------------------7-----7-------0h1-----0-----------------
E|--3--3--3--3--3--3--3--3--3--3-----5--0--6---------------------------------2-----3--3--3--3--3--



E|------------------------------------------------------------------
B|------------------------------------------------------------------
G|------------------------------------------------------------------
D|-------------------------------------------------0h1--0-----------
A|------------------------------------------------------------0-----
E|--3--3--3--3--3--5--3--6--5--3--4--2--0--2/3--2----------2-----3--
http://www.guitartabcreator.com
Guitar Tab Creator is intended to store guitar tab created through the tool. It currently does not support in-line text editing. Any text you place in here will be lost. If you need to comment on your tab, please use the "Tab Notes" section located below.