Riff 1, Guitar 1

(/) Slide Up  (\) Slide Down  (h) Hammer On  (p) Pull Off  (b) Bend (r) Release (v) Vibrato


E|-----------------------------------------------------------------------------------------
B|-----------------------------------------------------------------------------------------
G|-----------------------------------------------------------------------------------------
D|-----------------------------------------------------------4---4---4-------4-------4/----
A|-------------------------------------------7---------------------------7-------7---------
E|---3---3---3---3---3---3---3---3---3---3-------5---0---6---------------------------------



E|---------------------
B|---------------------
G|---------------------
D|---------------------
A|---0h1-------1-------
E|---------2-------3---
http://www.guitartabcreator.com
Guitar Tab Creator is intended to store guitar tab created through the tool. It currently does not support in-line text editing. Any text you place in here will be lost. If you need to comment on your tab, please use the "Tab Notes" section located below.