Cutting board

(/) Slide Up  (\) Slide Down  (h) Hammer On  (p) Pull Off  (b) Bend (r) Release (v) Vibrato


E|-------------------------------------------------------------------------------------
B|-------------------------------------------------------------------------------------
G|-------------------------------------------------------------------------------------
D|--------5-----5--6-----6--5-----5--3-----3--3h5--------5-----5--6-----6--5--------5--
A|-----3-----3--------3--------3--------3-------------3-----3--------3--------3--3--5--
E|--3----------------------------------------------3--------------------------------3--



E|----------------------------------------------------------------------------------------
B|----------------------------------------------------------------------------------------
G|----------------------------------------------------------------------------------------
D|--------5-----5--6-----6--5-----5--3-----3--3h5--------3-----5--6-----6--5--------5-----
A|-----3-----3--------3--------3--------3-------------3-----3--------3--------3--3--5-----
E|--3----------------------------------------------3--------------------------------3-----



E|--
B|--
G|--
D|--
A|--
E|--
http://www.guitartabcreator.com
Guitar Tab Creator is intended to store guitar tab created through the tool. It currently does not support in-line text editing. Any text you place in here will be lost. If you need to comment on your tab, please use the "Tab Notes" section located below.