Green Summer Grass

(/) Slide Up  (\) Slide Down  (h) Hammer On  (p) Pull Off  (b) Bend (r) Release (v) Vibrato


E|----------------------------------
B|----------------------------------
G|----------------------------------
D|-----7-------8-------5-------0h3--
A|----------------------------------
E|--0-------0-------0-------0-------



E|---------------------------------------
B|---------------------------------------
G|---------------------------------------
D|-----------10-----------8-----------6--
A|-----8------------6-----------4--------
E|--3-----3------3-----3-----3-----3-----



E|---------------------------------
B|---------------------------------
G|---------------------------------
D|-----10-------8-------6-------4--
A|---------------------------------
E|--3--------3-------3-------3-----
http://www.guitartabcreator.com
Guitar Tab Creator is intended to store guitar tab created through the tool. It currently does not support in-line text editing. Any text you place in here will be lost. If you need to comment on your tab, please use the "Tab Notes" section located below.