nameless

(/) Slide Up  (\) Slide Down  (h) Hammer On  (p) Pull Off  (b) Bend (r) Release (v) Vibrato

E|-----------|-----------|-----------|---------|-
B|---8---6---|---8---6---|---8---4---|---8---4-|-
G|-----7-----|-----7-----|-----7-----|-----7---|-
D|-5---------|-5---------|-5---------|-5-------|-
A|-----------|-----------|-----------|---------|-
E|-----------|-----------|-----------|---------|-



E|-------------|-------------|-------------|-------------
B|---8-----8---|---8-----8---|---6-----6---|---6-----6---
G|-----7-----7-|-----7-----7-|-----7-----7-|-----7-----7-
D|-5-----5-----|-5-----5-----|-5-----5-----|-5-----5-----
A|-------------|-------------|-------------|-------------
E|-------------|-------------|-------------|-------------



E|--
B|--
G|--
D|--
A|--
E|--
http://www.guitartabcreator.com
Guitar Tab Creator is intended to store guitar tab created through the tool. It currently does not support in-line text editing. Any text you place in here will be lost. If you need to comment on your tab, please use the "Tab Notes" section located below.