I give up

(/) Slide Up  (\) Slide Down  (h) Hammer On  (p) Pull Off  (b) Bend (r) Release (v) Vibrato


~I GIVE UP~



INTRO:


E|-------------------------|
B|-------------------------|
G|-------12------------12--|
D|-10-10-10------10-10-10--|
A|-------------------------|
E|-------------------------| x2


E|-------------------------|
B|-------------------------|
G|-----12---------12-------|
D|-9-9-9------9-9-9--------|
A|-------------------------|
E|-------------------------| x2


E|-------------------------|
B|-------------------------|
G|-----9----------9--------|
D|-7-7-7------7-7-7--------|
A|-------------------------|
E|-------------------------| x2

INTRO x3 (1st only guitar, 2nd bass on, 3rd drums on)


E|---------------------------------------------------------------------------|
B|---------------------------------------------------------------------------|
G|-------12------------12----------12---------12---------9----------9------7-|
D|-10-10-10------10-10-10------9-9-9------9-9-9------7-7-7------7-7-7------5-|
A|---------------------------------------------------------------------------|
E|---------------------------------------------------------------------------|



E|---------------------------------------------------------------------------------|
B|---------------------------------------------------------------------------------|
G|-12-12-12-12-12-12-12-12-10-10-10-10-10-10-10-10-9-9-9-9-9-9-9-9-9-9-9-9-9-9-9-9-|
D|-12-12-12-12-12-12-12-12-10-10-10-10-10-10-10-10-9-9-9-9-9-9-9-9-9-9-9-9-9-9-9-9-|
A|-10-10-10-10-10-10-10-10-8--8--8--8--8--8--8--8--6-6-6-6-6-6-6-6-6-6-6-6-6-6-6-6-|
E|---------------------------------------------------------------------------------| x2
YEAH!


E|--------------------------------------------------------------------------------------------|
B|--------------------------------------------------------------------------------------------|
G|--------------------------------------------------------------------------------------------|
D|-12-12-12-12-12-12-12-12-12-12-12-12-12-12-12-12-10-10-10-10-10-10-10-10--9-9----9-9----9-9-|
A|-12-12-12-12-12-12-12-12-12-12-12-12-12-12-12-12-10-10-10-10-10-10-10-10--9-9----9-9----9-9-|
E|-10-10-10-10-10-10-10-10-10-10-10-10-10-10-10-10--8--8--8--8--8--8--8--8--6-6----6-6----6-6-| x2
When i look out of the window, i see this crappy world.
When i look in the mirror, i see a nasty man.
and when i`m alone, i can hear the children crying.

CHOURS:


E|-------------------------|
B|-------------------------|
G|-12-------------------------------|
D|-10----------------------|
A|-------------------------|
E|-------------------------|
Sometimes i have a feeling that i should...





http://www.guitartabcreator.com
Guitar Tab Creator is intended to store guitar tab created through the tool. It currently does not support in-line text editing. Any text you place in here will be lost. If you need to comment on your tab, please use the "Tab Notes" section located below.