Peanuts(Charlie Brown)Theme Song

(/) Slide Up  (\) Slide Down  (h) Hammer On  (p) Pull Off  (b) Bend (r) Release (v) Vibrato


Tuning: Eb, Ab, D, G, A, E

1-a-2-a-3-a-4-a-1-a-2-a-3-a-4-a-1-a-2-a-3-a-4-a-1-a-2-a-3-a-4-a
---------------------------------------------------------------
---------------------------------------------------------------
---------------------------------------------------------------
------5-----5---------2-----2---------5-----5---------2-----2--
----4-----4---------4-----4---------4-----4---------4-----4----
4-------4-------4-------4-------4-------4-------4-------4------


1-a-2-a-3-a-4-a-1-a-2-a-3-a-4-a-1-a-2-a-3-a-4-a-1-a-2-a-3-a-4-a
---------------------------------------------------------------
----0-----0-----0-------------------0-0~-----------------------
0-----4-4---0---------0---------0------------------------------
------5-----5---------2-----2---------5-----5---------2-----2--
----4-----4---------4-----4---------4-----4---------4-----4----
4-------4-------4-------4-------4-------4-------4-------4------


1-a-2-a-3-a-4-a-1-a-2-a-3-a-4-a-1-a-2-a-3-a-4-a-1-a-2-a-3-a-4-a
---------------------------------------------------------------
----0-----0-----0-------------------0--------------------------
0-----4-4---0---------0---------0-----4~-----------------------
------5-----5---------2-----2---------5-----5---------2-----2--
----4-----4---------4-----4---------4-----4---------4-----4----
4-------4-------4-------4-------4-------4-------4-------4------


1-a-2-a-3-a-4-a-1-a-2-a-3-a-4-a
-------------------------------
----0--------------------------
0-----4~-----------------------
------5-----5---------2-----2--
----4-----4---------4-----4----
4-------4-------4-------4------


1-a-2-a-3-a-4-a-1-a-2-a-3-a-4-a-1-a-2-a-3-a-4-a-1-a-2-a-3-a-4-a
---------------------------------------------------------------
----0-----0-----0-------------------0-0~-----------------------
0-----4-4---0---------0---------0------------------------------
------5-----5---------2-----2---------5-----5---------2-----2--
----4-----4---------4-----4---------4-----4---------4-----4----
4-------4-------4-------4-------4-------4-------4-------4------


1-a-2-a-3-a-4-a-1-a-2-a-3-a-4-a-1-a-2-a-3-a-4-a-1-a-2-a-3-a-4-a
---------------------------------------------------------------
----0-----0-----0-------------------0--------------------------
0-----4-4---0---------0---------0-----4~-----------------------
------5-----5---------2-----2---------5-----5---------2-----2--
----4-----4---------4-----4---------4-----4---------4-----4----
4-------4-------4-------4-------4-------4-------4-------4------


1-a-2-a-3-a-4-a-1-a-2-a-3-a-4-a
-------------------------------
----0--------------------------
0-----4~-----------------------
------5-----5---------2-----2--
----4-----4---------4-----4----
4-------4-------4-------4------

http://www.guitartabcreator.com
Guitar Tab Creator is intended to store guitar tab created through the tool. It currently does not support in-line text editing. Any text you place in here will be lost. If you need to comment on your tab, please use the "Tab Notes" section located below.