Rock Lead in Key of D

(/) Slide Up  (\) Slide Down  (h) Hammer On  (p) Pull Off  (b) Bend (r) Release (v) Vibrato


E|--------------2--3--2-----------------------------2--3--2-----------------
B|--------3--5-----------3--5--3--------------3--5-----------3--5--3--------
G|--2--4--------------------------4--2--2--4--------------------------4--2--
D|--------------------------------------------------------------------------
A|--------------------------------------------------------------------------
E|--------------------------------------------------------------------------



E|--------------------------------------------------------------
B|--------------------------------------------------------------
G|-----------------7--9--7-----------------9--7-----------------
D|-----------7--9-----------9--7-----------------9--7-----------
A|--5--7--9-----------------------9--7--5--------------9--7--5--
E|--------------------------------------------------------------



E|-----2--3--5--7--5--10--12--10--14--15--14--12--10--7--5--3--2--------
B|--5-------------------------------------------------------------5--3--
G|----------------------------------------------------------------------
D|----------------------------------------------------------------------
A|----------------------------------------------------------------------
E|----------------------------------------------------------------------
http://www.guitartabcreator.com
Guitar Tab Creator is intended to store guitar tab created through the tool. It currently does not support in-line text editing. Any text you place in here will be lost. If you need to comment on your tab, please use the "Tab Notes" section located below.