What A Friend We Have In Jesus-Jazz

(/) Slide Up  (\) Slide Down  (h) Hammer On  (p) Pull Off  (b) Bend (r) Release (v) Vibrato
E|--10--5--3--3--|-----
B|--10--5--3--5--|-----
G|--10--5--3--3--|-----
D|--8---5--3--3--|-----
A|------------3--|-----
E|---------------|-----



E|--8---6--|--5--6--|--8---6--|--5--6--|--8---6--|--5--6--|--8---6--|--5--3--|--3--3--|--
B|--8---6--|--6--6--|--8---6--|--6--6--|--8---6--|--6--6--|--8---6--|--6--3--|--3--5--|--
G|--10--8--|--5--8--|--10--8--|--5--8--|--10--8--|--5--8--|--10--8--|--5--4--|--3--3--|--
D|--10--8--|--7--8--|--10--8--|--7--8--|--10--8--|--7--8--|--10--8--|--7--3--|--3--5--|--
A|--8---6--|--5--6--|--8---6--|--5--6--|--8---6--|--5--6--|--8---6--|--5--5--|--5--3--|--
E|---------|--------|---------|--------|---------|--------|---------|-----3--|--3-----|--



E|--8---6--|--5--6--|--8---10--|--3--3--|--1--3--8---|--
B|--8---6--|--6--6--|--8---10--|--3--3--|--1--3--8---|--
G|--10--8--|--5--8--|--8---10--|--3--3--|--1--3--10--|--
D|--10--8--|--7--8--|--8---10--|--3--2--|--1--3--10--|--
A|--8---6--|--5--6--|--11--13--|--3--3--|--4--6--8---|--
E|---------|--------|----------|--------|------------|--



E|--0--12--|--3--|--5--|--5--|--3--2--|--1-----|--3--12--10--|--7--9--|--10--|--10--|--10--|--
B|--0--12--|--2--|--5--|--5--|--4--4--|--3--4--|--3--12--10--|--5--7--|--8---|--10--|--10--|--
G|--0--12--|--3--|--5--|--5--|--3--2--|--2--5--|--3--12--10--|--5--7--|--8---|--10--|--10--|--
D|--0--12--|--2--|--3--|--3--|--5--3--|--3--4--|--1--10--8---|--5--7--|--8---|--13--|--8---|--
A|--0--12--|--0--|--5--|--5--|--3-----|--1--5--|-------------|--5--7--|--8---|------|------|--
E|---------|-----|-----|-----|--------|--------|-------------|--------|------|------|------|--



E|--10--|------10--|--5--3--|--|--4--|--6--|--4--|--1--5--|--|--
B|--9---|--10--9---|--3--5--|--|--6--|--8--|--6--|--2--3--|--|--
G|--10--|--10--10--|--3--3--|--|--5--|--7--|--5--|--1--3--|--|--
D|--9---|--10--9---|--3--5--|--|--6--|--8--|--6--|--3--3--|--|--
A|------|--8-------|--3--3--|--|--4--|--6--|--4--|--1--3--|--|--
E|------|--8-------|--------|--|-----|-----|-----|--------|--|--



E|--8---6--|--5--6--|--8---6--|--5--3--|--3--3--|--|--
B|--8---6--|--6--6--|--8---6--|--6--3--|--3--5--|--|--
G|--10--8--|--5--8--|--10--8--|--5--4--|--3--3--|--|--
D|--10--8--|--7--8--|--10--8--|--7--3--|--3--5--|--|--
A|--8---6--|--5--6--|--8---6--|--5--5--|--5--3--|--|--
E|---------|--------|---------|-----3--|--3-----|--|--



E|--8---6--|--5--6--|--8---10--|--3--3--|--1--3--8---|--
B|--8---6--|--6--6--|--8---10--|--3--3--|--1--3--8---|--
G|--10--8--|--5--8--|--8---10--|--3--3--|--1--3--10--|--
D|--10--8--|--7--8--|--8---10--|--3--2--|--1--3--10--|--
A|--8---6--|--5--6--|--11--13--|--3--3--|--4--6--8---|--
E|---------|--------|----------|--------|------------|--



E|--0--|--3--|--5--|--5--|--3--2--|--1-----|--3--12--10--|--7--9--|--10--|--10--|--10--|--
B|--0--|--2--|--5--|--5--|--4--4--|--3--4--|--3--12--10--|--5--7--|--8---|--10--|--10--|--
G|--0--|--3--|--5--|--5--|--3--2--|--2--5--|--3--12--10--|--5--7--|--8---|--10--|--10--|--
D|--0--|--2--|--3--|--3--|--5--3--|--3--4--|--1--10--8---|--5--7--|--8---|--13--|--8---|--
A|--0--|--0--|--5--|--5--|--3-----|--1--5--|-------------|--5--7--|--8---|------|------|--
E|-----|-----|-----|-----|--------|--------|-------------|--------|------|------|------|--



E|--10--|--10------|--10--8---|--8---8---|--10--10--|--5--3--|--4--6--|--8---|--|--
B|--9---|--10--10--|--11--8---|--8---10--|--10--9---|--3--5--|--6--8--|--8---|--|--
G|--10--|--10--10--|--12--9---|--8---8---|--10--10--|--3--3--|--5--7--|--10--|--|--
D|--9---|--8---10--|--12--8---|--8---10--|--8---9---|--3--5--|--6--8--|--10--|--|--
A|------|------8---|--10--10--|--10--8---|----------|--3--3--|--4--6--|--8---|--|--
E|------|----------|------8---|--8-------|----------|--------|--------|------|--|--
http://www.guitartabcreator.com
Guitar Tab Creator is intended to store guitar tab created through the tool. It currently does not support in-line text editing. Any text you place in here will be lost. If you need to comment on your tab, please use the "Tab Notes" section located below.