Nomoreheroes-slash

(/) Slide Up  (\) Slide Down  (h) Hammer On  (p) Pull Off  (b) Bend (r) Release (v) Vibrato

E|--------------------------------------------------------------------
B|--------------------------------------------------------------------
G|--------------------------------------------------------------------
D|--9/13v--12v--14v--16--14v--14b16--13v--12v--11v--11h13--9----------
A|--------------------------------------------------------------------
E|--------------------------------------------------------------1/12--



E|---------------------------------------------------------------------
B|--------------12--------------12--------------12--------------12-----
G|------13--------------13--------------12--------------12-------------
D|----------14------14------14--------------12------12------12---------
A|----------------------------------10---------------------------------
E|--12-----------------------------------------------------------------



E|--------------------------------------------------------------------|----------------------------
B|--------------10--------------10--------------14------14b15b14--12--|------14--------------------
G|------11--------------11--------------14----------------------------|--14------------------------
D|----------12------12------12--------------14------14----------------|----------14--12------------
A|----------------------------------12--------------------------------|------------------12h14-----
E|--10----------------------------------------------------------------|----------------------------



E|-----------------|--
B|-----------------|--
G|-----------------|--
D|--12---------12--|--
A|------12h14------|--
E|-----------------|--



E|------------------------------
B|--9--8--7--5--7v--9--8--7--5--
G|--9--7--7--6------9--7--7--6--
D|--9--9--7--7------9--9--7--9--
A|------------------------------
E|------------------------------



E|------------------------------------------------------------------------------------
B|------------------------------------------------------------------------------------
G|------------------------------------------------------------------------------------
D|--9--9--9--9--9----9-----9------------5--5----------7-----7-------------------------
A|--7--7--7--7--7----7--9--7--9--10--5--3--3--5--5----5--7--5---------5-------5-------
E|----------------------7-----7--8---3--------3--3-------5-------5h7-----5h7----------



E|-----------------------------------|-----
B|-----------------------------------|-----
G|--9/13v--12v--/14v--16--14--14b16--|-----
D|-----------------------------------|-----
A|-----------------------------------|-----
E|-----------------------------------|-----



E|------------------------------------------------------------------|-
B|-------------9----------------------------------------------------|-
G|-9-9-9-9-9-9-9-9--7-7-7-7-7-7-7--7-7-7-7-7-7-7-7--6-6-6-6-6-6-6-6-|-
D|-9-9-9-9-9-9-9-9--9-9-9-9-9-9-9--7-7-7-7-7-7-7-7--7-7-7-7-7-7-7-7-|-
A|---------------------------------------------7--------------------|-
E|------------------------------------------------------------------|-



E|--------------------------------------------|---------------------
B|--------------------------------------------|---------------------
G|--------------------------------------------|---------------------
D|----9----7----------------------------------|----9----7-----------
A|----7----5------5------7---------5-------5--|----7----5----5------
E|----------------3------5----5h7-----5h7-----|--------------3------



E|-------------------------------------------------------------------------------------------
B|-------------------------------------------------------------------------------------------
G|-------------------------------------------------------------------------------------------
D|--9--9--9--11--11--11--12--12--12--14--14--14--16--16--16--18--18--18--20--20--20--20--20--
A|--7--7--7--9---9---9---10--10--10--12--12--12--14--14--14--16--16--16--18--18--18--18--18--
E|-------------------------------------------------------------------------------------------



E|------------------|--
B|------------------|--
G|------------------|--
D|------------------|--
A|-------5-------5--|--
E|--5h7-----5h7-----|--
http://www.guitartabcreator.com
Guitar Tab Creator is intended to store guitar tab created through the tool. It currently does not support in-line text editing. Any text you place in here will be lost. If you need to comment on your tab, please use the "Tab Notes" section located below.