intro

(/) Slide Up  (\) Slide Down  (h) Hammer On  (p) Pull Off  (b) Bend (r) Release (v) Vibrato


E|--------------5-----0-----------------5-----0-----------0-----7-----5-----------------5-----0-----------
B|--------3-----------------------3-----------------------------------------------3--------------------4--
G|-----4-----4-----4-----4-----4-----4-----4-----4-----5-----5-----5-----5-----4-----4-----4-----4--4-----
D|--5-----------------------5-----------------------5-----------------------5-----------------------------
A|--------------------------------------------------------------------------------------------------------
E|--------------------------------------------------------------------------------------------------------



E|--------------------------------------------------------------------5-----3-----
B|--------3-----5-----3--------2--------1-----3-----1-----------3-----------------
G|-----4-----4-----4-----4--2--------2-----2-----2-----2-----4-----4-----4-----4--
D|--4-----------------------------2-----------------------5-----------------------
A|--------------------------------------------------------------------------------
E|--------------------------------------------------------------------------------
http://www.guitartabcreator.com
Guitar Tab Creator is intended to store guitar tab created through the tool. It currently does not support in-line text editing. Any text you place in here will be lost. If you need to comment on your tab, please use the "Tab Notes" section located below.