43% Burnt

(/) Slide Up  (\) Slide Down  (h) Hammer On  (p) Pull Off  (b) Bend (r) Release (v) Vibrato
E|-12-12-12-12-------12-12-12-12-12-
B|-16-16-16-16-------16-16-16-16-16-
G|----------------------------------
D|----------------------------------
A|--------------0-0-----------------
E|--------------0-0-----------------



E|-12-12-12-12-------12-12-12-12----12-12-12-12-------12-12-12-----12-12-12-12--------12-12-12-12-12-
B|-16-16-16-16-------16-16-16-16----16-16-16-16-------16-16-16-----16-16-16-16--------16-16-16-16-16-
G|---------------------------------------------------------------------------------------------------
D|---------------------------------------------------------------------------------------------------
A|--------------0-0------------------------------0-0-----------0-0---------------0-0-----------------
E|--------------0-0------------------------------0-0-----------0-0---------------0-0-----------------



E|-----------------------------------------------------------------------------------------
B|-17-17-17-17-------------17-17-------------17-17-17-17-17--------------17-17-17-17-17----
G|-------------14-14-14-14-------14-14-14-14-----------------14-14-14-14-------------------
D|-----------------------------------------------------------------------------------------
A|-----------------------------------------------------------------------------------------
E|-----------------------------------------------------------------------------------------



E|-------------------------------------------
B|-------------17-17-------------17-17-17-17-
G|-14-14-14-14-------14-14-14-14-------------
D|-------------------------------------------
A|-------------------------------------------
E|-------------------------------------------



E|--------------------------------------------------------------------
B|--------------------------------------------------------------------
G|--8--8--7--7--8--8--8--8--7--7--8--8--7--7--7--7--7--7--8--8--7--7--
D|--------------------------------------------------------------------
A|--5--5--5--5--5--5--5--5--5--5--5--5--5--5--5--5--5--5--5--5--5--5--
E|--------------------------------------------------------------------
http://www.guitartabcreator.com
Guitar Tab Creator is intended to store guitar tab created through the tool. It currently does not support in-line text editing. Any text you place in here will be lost. If you need to comment on your tab, please use the "Tab Notes" section located below.