Disentagled

(/) Slide Up  (\) Slide Down  (h) Hammer On  (p) Pull Off  (b) Bend (r) Release (v) Vibrato

E|-----------------------------------------------------------------
B|-0---0---7---7---5---5---3---3---0---0---0---0---0---0---0---0---
G|---0---0---0---0---0---0---0---0---0---0---1---1---0---0---2---2-
D|-----------------------------------------------------------------
A|-----------------------------------------------------------------
E|-----------------------------------------------------------------

E|-----------------------------------------------------------------
B|-0---0---5---5---3---3---1---1---0---0---0---0---0---0---0---0---
G|---5---5---5---5---3---3---0---0---1---1---2---2-----------2---2-
D|---------------------------------------------------2---2---------
A|-----------------------------------------------------------------
E|-----------------------------------------------------------------
http://www.guitartabcreator.com
Guitar Tab Creator is intended to store guitar tab created through the tool. It currently does not support in-line text editing. Any text you place in here will be lost. If you need to comment on your tab, please use the "Tab Notes" section located below.