The Dancer

(/) Slide Up  (\) Slide Down  (h) Hammer On  (p) Pull Off  (b) Bend (r) Release (v) Vibrato

E|----------------------------------|--------------------------------
B|----------------------------------|--------------------------------
G|-----5------5-----5-----5-----5---|---5------5-----5-----5-----5---
D|----------------------------------|6-----6------------5-----5------
A|--3-----3------3-----3-----3------|--------------------------------
E|----------------------------------|-------------4------------------



E|----------------------------------|-------------------4----------4-
B|--4-----4---4-----4-----5-----4---|-------------6--------5-----4---
G|-----5----------------------------|---5------5-----5---------------
D|----------------------------------|3-----3------------------6------
A|---------------6-----6-----6------|--------------------------------
E|----------------------------------|--------------------------------
http://www.guitartabcreator.com
Guitar Tab Creator is intended to store guitar tab created through the tool. It currently does not support in-line text editing. Any text you place in here will be lost. If you need to comment on your tab, please use the "Tab Notes" section located below.