Sweep solo

(/) Slide Up  (\) Slide Down  (h) Hammer On  (p) Pull Off  (b) Bend (r) Release (v) Vibrato


E|--------------------------------------------------------------------------------------------------
B|--------------------------------------------------------------------------------------------------
G|--------------21--------------21--------------18--------------18--------------16--------------16--
D|------17--19----------17--19----------15--17----------15--17----------14--15----------14--15------
A|--15--------------15--------------14--------------14--------------12--------------12--------------
E|--------------------------------------------------------------------------------------------------



E|--------------------------------------------------------------
B|--------------------------------------------------------------
G|--------------15--------------15------------------------------
D|------12--14----------12--14------------------15----------17--
A|--10--------------10--------------12--14--15------14--15------
E|--------------------------------------------------------------
http://www.guitartabcreator.com
Guitar Tab Creator is intended to store guitar tab created through the tool. It currently does not support in-line text editing. Any text you place in here will be lost. If you need to comment on your tab, please use the "Tab Notes" section located below.