John Cafferty Garden of Eden

(/) Slide Up  (\) Slide Down  (h) Hammer On  (p) Pull Off  (b) Bend (r) Release (v) Vibrato


E|-----------8--11--11--11--11--11--11--11--8h11p8------8----------------8-------------
B|--3/8--11-----10--10--10--10--10--10--10----------11-----11--8---------8--11b13------
G|----------------------------------------------------------------10b10----------------
D|-------------------------------------------------------------------------------------
A|-------------------------------------------------------------------------------------
E|-------------------------------------------------------------------------------------



E|-------------------------------------------------x---x-----------------------13--15------
B|-------------------------------------------------11--10----------13------16----------13--
G|--8h10--10b10------8--8--------------------------12--11----8/14------14------------------
D|---------------10--------10--8------8/10--8/10v--12--11----------------------------------
A|--------------------------------10---------------10--9-----------------------------------
E|-------------------------------------------------x---x-----------------------------------



E|------------------------------------------------15b17--15b16-----
B|--------13------15------16--13------13--15--13-------------------
G|--8/14------14------14----------14-------------------------------
D|-----------------------------------------------------------------
A|-----------------------------------------------------------------
E|-----------------------------------------------------------------
http://www.guitartabcreator.com
Guitar Tab Creator is intended to store guitar tab created through the tool. It currently does not support in-line text editing. Any text you place in here will be lost. If you need to comment on your tab, please use the "Tab Notes" section located below.