The Quiet Things That Nobody Ever Knows

(/) Slide Up  (\) Slide Down  (h) Hammer On  (p) Pull Off  (b) Bend (r) Release (v) Vibrato


NOTES ARE RELATIVE TO THE CAPO ( Act as the capo'd fret is the 0)
Capo 1st

D tuning (whole step down, DGCFAD)



Intro [0:12-0:35]
d|----------------------------------------------------------------------|
a|----------------------------------------------------------------------|
f|----------------------------------------------------------------------|
c|----5-5-5-5-5-5-5-5-5-5-5-5-5-5-5-5--2-2-2-2-2-2-2-2-2-2-2-2-2-2-2-2--|
g|----5-5-5-5-5-5-5-5-5-5-5-5-5-5-5-5--2-2-2-2-2-2-2-2-2-2-2-2-2-2-2-2--|
d|----3-3-3-3-3-3-3-3-3-3-3-3-3-3-3-3--0-0-0-0-0-0-0-0-0-0-0-0-0-0-0-0--|

d|----------------------------------------------------------------------|
a|----------------------------------------------------------------------|
f|----5-5-5-5-5-5-5-5-5-5-5-5-5-5-5-5--7-7-7-7-7-7-7-7-7-7-7-7-7-7-7-7--|
c|----5-5-5-5-5-5-5-5-5-5-5-5-5-5-5-5--7-7-7-7-7-7-7-7-7-7-7-7-7-7-7-7--|
g|----3-3-3-3-3-3-3-3-3-3-3-3-3-3-3-3--5-5-5-5-5-5-5-5-5-5-5-5-5-5-5-5--|
d|----------------------------------------------------------------------|



Verse 1 [0:36-1:00]
d|----------------------------------------------------------------------------|
a|----------------------------------------------------------------------------|
f|----------------------------------------------------------------------------|
c|-------------------------------------------5-5-5-5-5-5-5-5-5-5-5-5-5-5-5-5--|
g|--5-5x----5-5-5-5-5-5-5-5-5-5-5-5-5-5-5-5--3-3-3-3-3-3-3-3-3-3-3-3-3-3-3-3--|
d|--3-3x--8/3-3-3-3-3-3-3-3-3-3-3-3-3-3-3-3-----------------------------------|
............................... ...............................

d|----------------------------------------------------------------------|
a|----------------------------------------------------------------------|
f|----------------------------------------------------------------------|
c|-------------------------------------5-5-5-5-5-5-5-5-5-5-5-5-5-5-5-5--|
g|----2-2-2-2-2-2-2-2-2-2-2-2-2-2-2-2--3-3-3-3-3-3-3-3-3-3-3-3-3-3-3-3--|
d|----0-0-0-0-0-0-0-0-0-0-0-0-0-0-0-0-----------------------------------|
............................... ...............................


Chorus [1:01-1:24]
d|----------------------------------------------------------------------|
a|----------------------------------------------------------------------|
f|----------------------------------------------------------------------|
c|----5-5-5-5-5-5-5-5-5-5-5-5-5-5-5-5--2-2-2-2-2-2-2-2-2-2-2-2-2-2-2-2--|
g|----5-5-5-5-5-5-5-5-5-5-5-5-5-5-5-5--2-2-2-2-2-2-2-2-2-2-2-2-2-2-2-2--|
d|----3-3-3-3-3-3-3-3-3-3-3-3-3-3-3-3--0-0-0-0-0-0-0-0-0-0-0-0-0-0-0-0--|

d|----------------------------------------------------------------------|
a|----------------------------------------------------------------------|
f|----5-5-5-5-5-5-5-5-5-5-5-5-5-5-5-5--7-7-7-7-7-7-7-7-7-7-7-7-7-7-7-7--|
c|----5-5-5-5-5-5-5-5-5-5-5-5-5-5-5-5--7-7-7-7-7-7-7-7-7-7-7-7-7-7-7-7--|
g|----3-3-3-3-3-3-3-3-3-3-3-3-3-3-3-3--5-5-5-5-5-5-5-5-5-5-5-5-5-5-5-5--|
d|----------------------------------------------------------------------|

Verse [1:25-1:49]
d|----------------------------------------------------------------------------|
a|----------------------------------------------------------------------------|
f|----------------------------------------------------------------------------|
c|-------------------------------------------5-5-5-5-5-5-5-5-5-5-5-5-5-5-5-5--|
g|--5-5x----5-5-5-5-5-5-5-5-5-5-5-5-5-5-5-5--3-3-3-3-3-3-3-3-3-3-3-3-3-3-3-3--|
d|--3-3x--8/3-3-3-3-3-3-3-3-3-3-3-3-3-3-3-3-----------------------------------|
............................... ...............................

d|----------------------------------------------------------------------|
a|----------------------------------------------------------------------|
f|----------------------------------------------------------------------|
c|-------------------------------------5-5-5-5-5-5-5-5-5-5-5-5-5-5-5-5--|
g|----2-2-2-2-2-2-2-2-2-2-2-2-2-2-2-2--3-3-3-3-3-3-3-3-3-3-3-3-3-3-3-3--|
d|----0-0-0-0-0-0-0-0-0-0-0-0-0-0-0-0-----------------------------------|
............................... ...............................

Chorus [1:50-2:12]
d|----------------------------------------------------------------------|
a|----------------------------------------------------------------------|
f|----------------------------------------------------------------------|
c|----5-5-5-5-5-5-5-5-5-5-5-5-5-5-5-5--2-2-2-2-2-2-2-2-2-2-2-2-2-2-2-2--|
g|----5-5-5-5-5-5-5-5-5-5-5-5-5-5-5-5--2-2-2-2-2-2-2-2-2-2-2-2-2-2-2-2--|
d|----3-3-3-3-3-3-3-3-3-3-3-3-3-3-3-3--0-0-0-0-0-0-0-0-0-0-0-0-0-0-0-0--|

d|----------------------------------------------------------------------|
a|----------------------------------------------------------------------|
f|----5-5-5-5-5-5-5-5-5-5-5-5-5-5-5-5--7-7-7-7-7-7-7-7-7-7-7-7-7-7-7-7--|
c|----5-5-5-5-5-5-5-5-5-5-5-5-5-5-5-5--7-7-7-7-7-7-7-7-7-7-7-7-7-7-7-7--|
g|----3-3-3-3-3-3-3-3-3-3-3-3-3-3-3-3--5-5-5-5-5-5-5-5-5-5-5-5-5-5-5-5--|
d|----------------------------------------------------------------------|


Bridge [2:13-2:36]
d|-------------------------|
a|-------------------------|
f|----------------5~----7~-|
c|----5~----2~----5~----7~-|
g|----5~----2~----3~----5~-|
d|----3~----0~-------------|

Bridge part II / Ending [2:37-4:02]
d|----------------------------------------------------------------------|
a|----------------------------------------------------------------------|
f|----------------------------------------------------------------------|
c|----5-5-5-5-5-5-5-5-5-5-5-5-5-5-5-5--2-2-2-2-2-2-2-2-2-2-2-2-2-2-2-2--|
g|----5-5-5-5-5-5-5-5-5-5-5-5-5-5-5-5--2-2-2-2-2-2-2-2-2-2-2-2-2-2-2-2--|
d|----3-3-3-3-3-3-3-3-3-3-3-3-3-3-3-3--0-0-0-0-0-0-0-0-0-0-0-0-0-0-0-0--|

d|------------------------------------------------------------------------|
a|------------------------------------------------------------------------|
f|----5-5-5-5-5-5-5-5-5-5-5-5-5-5-5-5--7-7-7-7-7-7-7-7-7-7-7-7-7-7-7-7----|
c|----5-5-5-5-5-5-5-5-5-5-5-5-5-5-5-5--7-7-7-7-7-7-7-7-7-7-7-7-7-7-7-7-5v-|
g|----3-3-3-3-3-3-3-3-3-3-3-3-3-3-3-3--5-5-5-5-5-5-5-5-5-5-5-5-5-5-5-5-5v-|
d|---------------------------------------------------------------------3v-|


Guitar Tab Creator is intended to store guitar tab created through the tool. It currently does not support in-line text editing. Any text you place in here will be lost. If you need to comment on your tab, please use the "Tab Notes" section located below.