Harmonic Riffs

(/) Slide Up  (\) Slide Down  (h) Hammer On  (p) Pull Off  (b) Bend (r) Release (v) Vibrato


[Josh]


[intro]
D C A G# D C F E
B|------------------------------------------------
A|------------------------------------------------
F|-----9-7-7-16-16-15-15-----9-7-7-12-12-x-11-11-12
C|-----x-x-x-x--x--x--x------x-x-x-x--x--x-x--x--x
G|-----7-5-5-14-14-13-13-----7-5-5-10-10-x-9--9--10
B|-0-0-0-0-0-0--0--0--0------0-0-0-------x---------

[verse]
D A G# D F E
B|----------------------------------------------
A|----------------------------------------------
F|----------------------------------------------
C|-----------2-2-2-9-9-x-8p0-x-x-2-2-2-5-5-4-4p0
G|-----------2-2-2-9-9-x-8p0-x-x-2-2-2-5-5-4-4p0
B| 12/3--0-0-0-0-0-7-7-x-6/7-x-x-0-0-0-3-3-2-2/3


[chorus]
B|----------------------------------------
A|-------------------------------------12v-
F|-------------------------------------12v
C|-9-9-9-9/8-8-8-8/7-7-7-7/5-5-5-5-5v-----
G|-9-9-9-9/8-8-8-8/7-7-7-7/5-5-5-5-5v-----
B|-7-7-7-7/6-6-6-6/5-5-5-5/3-3-3-3-3v-----



[Treys]

B|----------------------------------------------------------------
A|----------------------------------------------------------------
F|----------------------------------------------------------------
C|-------------4h5-5-5 5p4------------9p8h9-8---------------------
G|-------5h7-7-------------5---5v-------------10p9h10/7--5-----5h7
B|-0h6h7---------------------7---------------------------0-0-0----

B|---------------------------
A|---------------------------
F|---------------------------
C|-----2p0h2p0---------------
G|-------------2h3-2---------
B|-0-0---------------3-2h3-0v

B|-----------------------------------
A|----7-7-7-7-7-7-7-7-7-7-7-7-7-7-7-7
F|----7-7-7-7-7-7-7-7-7-7-7-7-7-7-7-7
C|----9-9-9-9-8-8-8-8-7-7-7-7-5-5-5-5v
G|-----------------------------------
B|-----------------------------------

http://www.guitartabcreator.com
Guitar Tab Creator is intended to store guitar tab created through the tool. It currently does not support in-line text editing. Any text you place in here will be lost. If you need to comment on your tab, please use the "Tab Notes" section located below.