Adam's Song

(/) Slide Up  (\) Slide Down  (h) Hammer On  (p) Pull Off  (b) Bend (r) Release (v) Vibrato

NO CAPO
D tuning (DGCFAD)


Intro [0:00-0:15]
D|-------------------------------------------------|
A|-------------------------------------------------|
F|-------------------------------------------------|
C|---4-0---4-0---4-0---4-0---4-0---4-0---4-0---4-0-|
G|-2-----2-----0-----0-----------------------------|
D|-------------------------3-----3-----0-----3-----|


Verse [0:16-0:44]
D|-----------------------------------------------------------------|
A|-----------------------------------------------------------------|
F|-----------------------------------------------------------------|
C|-7-7-7-7-7-7-7-7-----------------4-4-4-4-4-4-4-4-----------------|
G|-5-5-5-5-5-5-5-5-5-5-5-5-5-5-5-5-2-2-2-2-2-2-2-2-5-5-5-5-5-5-5-5-|
D|-----------------3-3-3-3-3-3-3-3-----------------3-3-3-3-3-3-3-3-|
..................................................................

Interlude [0:45-0:57]


Pre-chorus [0:58-1:11]
D|-----------------------------------------------------------------|
A|-----------------------------------------------------------------|
F|-7-7-7-7-7-7-7-7-9-9-9-9-9-9-9-9-4-4-4-4-4-4-4-4-----------------|
C|-------------------------------------------------5-5-5-5-5-5-5-5-|
G|-5-5-5-5-5-5-5-5-7-7-7-7-7-7-7-7-2-2-2-2-2-2-2-2-----------------|
D|-------------------------------------------------3-3-3-3-3-3-3-3-|

Chorus [1:12-1:25]
D|-----------------------------------------------------------------|
A|-----------------------------------------------------------------|
F|-7-7-7-7-7-7-7-7-9-9-9-9-9-9-9-9-4-4-4-4-4-4-4-4-----------------|
C|-7-7-7-7-7-7-7-7-9-9-9-9-9-9-9-9-4-4-4-4-4-4-4-4-5-5-5-5-5-5-5-5-|
G|-5-5-5-5-5-5-5-5-7-7-7-7-7-7-7-7-2-2-2-2-2-2-2-2-5-5-5-5-5-5-5-5-|
D|-------------------------------------------------3-3-3-3-3-3-3-3-|

Intro [1:26-1:40]
D|-------------------------------------------------|
A|-------------------------------------------------|
F|-------------------------------------------------|
C|---4-0---4-0---4-0---4-0---4-0---4-0---4-0---4-0-|
G|-2-----2-----0-----0-----------------------------|
D|-------------------------3-----3-----0-----3-----|


Verse [1:40-2:08]
D|-----------------------------------------------------------------|
A|-----------------------------------------------------------------|
F|-----------------------------------------------------------------|
C|-7-7-7-7-7-7-7-7-----------------4-4-4-4-4-4-4-4-----------------|
G|-5-5-5-5-5-5-5-5-5-5-5-5-5-5-5-5-2-2-2-2-2-2-2-2-5-5-5-5-5-5-5-5-|
D|-----------------3-3-3-3-3-3-3-3-----------------3-3-3-3-3-3-3-3-|
..................................................................

Interlude [2:09-2:21]

Pre-chorus [2:22-2:35]
D|-----------------------------------------------------------------|
A|-----------------------------------------------------------------
F|-7-7-7-7-7-7-7-7-9-9-9-9-9-9-9-9-4-4-4-4-4-4-4-4-----------------|
C|-------------------------------------------------5-5-5-5-5-5-5-5-|
G|-5-5-5-5-5-5-5-5-7-7-7-7-7-7-7-7-2-2-2-2-2-2-2-2-----------------|
D|-------------------------------------------------3-3-3-3-3-3-3-3-|

Chorus [2:36-2:49]
D|-----------------------------------------------------------------|
A|-----------------------------------------------------------------|
F|-7-7-7-7-7-7-7-7-9-9-9-9-9-9-9-9-4-4-4-4-4-4-4-4-----------------|
C|-7-7-7-7-7-7-7-7-9-9-9-9-9-9-9-9-4-4-4-4-4-4-4-4-5-5-5-5-5-5-5-5-|
G|-5-5-5-5-5-5-5-5-7-7-7-7-7-7-7-7-2-2-2-2-2-2-2-2-5-5-5-5-5-5-5-5-|
D|-------------------------------------------------3-3-3-3-3-3-3-3-|

Interlude [2:50-3:35]


Chorus [3:36-4:10]
D|-----------------------------------------------------------------|
A|-----------------------------------------------------------------|
F|-7-7-7-7-7-7-7-7-9-9-9-9-9-9-9-9-4-4-4-4-4-4-4-4-----------------|
C|-7-7-7-7-7-7-7-7-9-9-9-9-9-9-9-9-4-4-4-4-4-4-4-4-5-5-5-5-5-5-5-5-|
G|-5-5-5-5-5-5-5-5-7-7-7-7-7-7-7-7-2-2-2-2-2-2-2-2-5-5-5-5-5-5-5-5-|
D|-------------------------------------------------3-3-3-3-3-3-3-3-|









Guitar Tab Creator is intended to store guitar tab created through the tool. It currently does not support in-line text editing. Any text you place in here will be lost. If you need to comment on your tab, please use the "Tab Notes" section located below.