Little Riff

(/) Slide Up  (\) Slide Down  (h) Hammer On  (p) Pull Off  (b) Bend (r) Release (v) Vibrato

E|-------------------------------------------------------------------
B|-------------------------------------------------------------------
G|-------------------------------------------------------------------
D|-------------------------------------0-------0-------3-------3--2--
A|-----2-------2-------5-------5----0-------0-------3-------3--------
E|--3-------3-------5-------5----------------------------------------



E|----------------------------------------------------------------
B|----------------------------------------------------------------
G|-------------------------------------4-------4-------2-------2--
D|-----2-------2-------5-------5----0-------0-------0-------0-----
A|--3-------3-------5-------5-------------------------------------
E|----------------------------------------------------------------
http://www.guitartabcreator.com
Guitar Tab Creator is intended to store guitar tab created through the tool. It currently does not support in-line text editing. Any text you place in here will be lost. If you need to comment on your tab, please use the "Tab Notes" section located below.