Alter Bridge - Solace

(/) Slide Up  (\) Slide Down  (h) Hammer On  (p) Pull Off  (b) Bend (r) Release (v) Vibrato
E|-----------|-----------|-----------|----------------|-----------|-
B|-----------|-----------|-----------|----------------|-----------|-
G|-----4-----|-----5-----|-----7-----|-------12-------|-----7-----|-
D|-5-----5---|-7-----7---|-9-----9---|-14-------14----|-9-----9---|-
A|-----------|-----------|-----------|----------------|-----------|-
E|-2-2-----2-|-4-4-----4-|-5-5-----5-|-10-10-------10-|-5-5-----5-|-



E|--------|-----------|-------------|-----------|-----------|-----------|-
B|--------|-----------|-------------|-----------|-----------|-----------|-
G|--------|-----0-----|-------------|-----4-----|-----5-----|-----7-----|-
D|-10-9-7-|-9-----9---|-4---4/5\4p0-|-5-----5---|-7-----7---|-9-----9---|-
A|--------|-----------|-------------|-----------|-----------|-----------|-
E|-5--5-5-|-5-5-----0-|---0---------|-2-2-----2-|-4-4-----4-|-5-5-----5-|-



E|----------------|----------------|----------|-----------|-----------|---
B|----------------|----------------|----------|-----------|-----------|---
G|-------14-------|----------------|----------|-----0-----|-----------|---
D|-16-------16----|-12-12----------|-14-12-10-|-9-----9---|-12-10-9/7-|-8-
A|----------------|-------14-------|----------|-----------|-----------|-5-
E|-12-12-------12-|-10-------10-10-|-10-10-10-|-5-5-----5-|-0---------|-5-



E|--x--
B|--x--
G|--x--
D|--7--
A|--5--
E|--5--
http://www.guitartabcreator.com
Guitar Tab Creator is intended to store guitar tab created through the tool. It currently does not support in-line text editing. Any text you place in here will be lost. If you need to comment on your tab, please use the "Tab Notes" section located below.