test3

(/) Slide Up  (\) Slide Down  (h) Hammer On  (p) Pull Off  (b) Bend (r) Release (v) Vibrato


E|----------------------------------------------------------------------------------------------------
B|--------------0-----------------------------0-------------------------------------------------------
G|-----------5--------------5--0-----------5--------------5--0-----------5--7--7--9--7--6-----6h7-----
D|--------5--------------5--------------5--------------5--------------5--------------------9-------7--
A|-----7--------------7--------------7--------------7--------------7----------------------------------
E|--5--------------5--------------5--------------5--------------5-------------------------------------



E|---------------------------
B|---------------------------
G|---------------------------
D|--7--6---------------------
A|--------7--6--6h7--6\9-----
E|---------------------------
http://www.guitartabcreator.com
Guitar Tab Creator is intended to store guitar tab created through the tool. It currently does not support in-line text editing. Any text you place in here will be lost. If you need to comment on your tab, please use the "Tab Notes" section located below.