test2

(/) Slide Up  (\) Slide Down  (h) Hammer On  (p) Pull Off  (b) Bend (r) Release (v) Vibrato


E|-----------------------------------------------
B|-----------------------------------------------
G|-----------------------------------------------
D|--9--8--7--8--7--6--7--6--5--6--5--4--5--4--2--
A|--7--6--5--6--5--4--5--4--3--4--3--2--3--2--0--
E|-----------------------------------------------



E|-----------------------------------------------------------------------------
B|-----------------------------------------------------------------------------
G|-----------------------------------------------------------------------------
D|------------------------------------10-9-7-8-6-------------------------------
A|-------------------------------10-9-8--7-5-6-4-------------------------------
E|-0-0-0-0-0-0-0-0-0-0-0-0-0-0-0-8--7------------0-0-0-0-0-0-0-0-0-0-0-0-0-0-0-
http://www.guitartabcreator.com
Guitar Tab Creator is intended to store guitar tab created through the tool. It currently does not support in-line text editing. Any text you place in here will be lost. If you need to comment on your tab, please use the "Tab Notes" section located below.