test

(/) Slide Up  (\) Slide Down  (h) Hammer On  (p) Pull Off  (b) Bend (r) Release (v) Vibrato

E|------------------------------------
B|------------------------------------
G|-----9--10--9-----7--8--7--5--------
D|--7------------5--------------7--5--
A|------------------------------------
E|------------------------------------



E|------------------------------
B|------------------------------
G|------------------------------
D|--------------5p7-------------
A|-----------7-------5p7--------
E|--5--7--8---------------7-----



E|-------------------------------------------------------
B|-------------------------------------------------------
G|-------------------------------------------------------
D|--7--------7--------7--------7-------------------------
A|--5--------5--------5--------5--------7--5-----5h8--5--
E|-----0--0-----0--0-----0--0-----0--0--------7----------



E|--------------------------------------
B|--------------------------------------
G|--------------------------------------
D|--1--------5--7--5--------------------
A|--0--------3--5--3-----------5--3--5--
E|-----0--0-----------0--3--6-----------
http://www.guitartabcreator.com
Guitar Tab Creator is intended to store guitar tab created through the tool. It currently does not support in-line text editing. Any text you place in here will be lost. If you need to comment on your tab, please use the "Tab Notes" section located below.