Sweeps

(/) Slide Up  (\) Slide Down  (h) Hammer On  (p) Pull Off  (b) Bend (r) Release (v) Vibrato


E|-15----------15----------15----------------15-17----------17----------17---------------------15---
B|----13----13----13----13----13----------13-------13-12-13----13----13----13---------------13------
G|-------12----------12----------12----12-------------------------12----------12---------12---------
D|----------------------------------10-------------------------------------------10-9-10------------
A|--------------------------------------------------------------------------------------------------
E|--------------------------------------------------------------------------------------------------



E|-17-15-17-18-17-15-------15-------15----------------15--------------------------------------------
B|-------------------13-------13-------13----------13----13-----------------------------------------
G|----------------------12-------12-------12----12----------12--------------------------------------
D|-------------------------------------------10----------------10-8-10-5-10-6-8-7-7-8-7-------------
A|--------------------------------------------------------------------------------------------------
E|--------------------------------------------------------------------------------------0-1-0-1-0---



E|-------------------------------------------------------------------------------------------------
B|-------------------------------------------------------------------------------------------------
G|-------------------------------------------------------------------------------------------------
D|-------------------------------------------------------------------------------------------------
A|-------------------------------------------------------------------------------------------------
E|-1-3-1-0-1-0-1-0-1-4-1-2-0-1-0-3-0-3-2-1-3-2-1-2-0-1-0-3-0-2-0-3-2-1-3-2-1-4-5-4-3-2-2-1-2-1-0---



E|---------------------------------------------------------------------12----12---12----------------
B|------------------------------------------------------------------------10---------10----10-9-----
G|------------------------------------------------------------------------------9-------10----------
D|--------------------------------------------------------------------------------------------------
A|-1---0---2---1---1---0---2---4---5---7---8---8-7-5-4-5-7-8-7-5-4-5-7------------------------------
E|---0---0---0---0---0---0---0---0---0---0---0------------------------------------------------------
http://www.guitartabcreator.com
Guitar Tab Creator is intended to store guitar tab created through the tool. It currently does not support in-line text editing. Any text you place in here will be lost. If you need to comment on your tab, please use the "Tab Notes" section located below.