Doctor Who Theme

(/) Slide Up  (\) Slide Down  (h) Hammer On  (p) Pull Off  (b) Bend (r) Release (v) Vibrato

E|------------------------------------------------------
B|-------------3----------------------------------------
G|-----5--4---------5--4----4---------------------------
D|--2--------------------------5--2----5----3--2--3--2--
A|------------------------------------------------------
E|------------------------------------------------------



E|------------------------------------------------------
B|-------------3----------------------------------------
G|-----5--4---------5--4----4---------------------------
D|--2--------------------------5--2----5----3--2--3--2--
A|------------------------------------------------------
E|------------------------------------------------------



E|----------------------------
B|--2-------2--0--------------
G|-------2--------2--1--2-----
D|----------------------------
A|----------------------------
E|----------------------------



E|--0--2----0-----0---------2----0-----0-----------------------
B|-------------3--------------------3------------2--0----------
G|---------------------2--------------------2------------2--1--
D|-------------------------------------------------------------
A|-------------------------------------------------------------
E|-------------------------------------------------------------



E|-------------------------------------------------
B|-------------------------------------------------
G|-----5--4-------5--4-------5--4-------5--4----4--
D|--2----------2----------2----------2-------------
A|-------------------------------------------------
E|-------------------------------------------------
http://www.guitartabcreator.com
Guitar Tab Creator is intended to store guitar tab created through the tool. It currently does not support in-line text editing. Any text you place in here will be lost. If you need to comment on your tab, please use the "Tab Notes" section located below.