They

(/) Slide Up  (\) Slide Down  (h) Hammer On  (p) Pull Off  (b) Bend (r) Release (v) Vibrato


E|----------------------------------------------------------
B|----------------------------------------------------------
G|----------------------------------------------------------
D|----------------------------------------------------------
A|----------------------------------------------------------
E|--0--0----3--5--0--0----3--5--0--0----3--5--0--0----3--5--



E|----------------------------------------------------------
B|----------------------------------------------------------
G|----------------------------------------------------------
D|----------------------------------------------------------
A|----------------------------------------------------------
E|--0--0----3--5--0--0----3--5--0--0----3--5--0--0----3--5--



E|-----------------|-----------------|-----------------|-----------------
B|-----------------|-----------------|-----------------|-----------------
G|-----------------|-----------------|-----------------|-----------------
D|-----------------|-----------------|-----------------|-----------------
A|-----------------|-----------------|-----------------|-----------------
E|--0--0--2--0--3--|--0--0--2--0--3--|--0--0--2--0--3--|--0--0--2--0--3--



E|--------|--------|-----------------|-----------------
B|--------|--------|-----------------|-----------------
G|--------|--------|-----------------|-----------------
D|--------|--------|-----------------|-----------------
A|--3--5--|--7--9--|-----------------|-----------------
E|--------|--------|--0--0--2--0--3--|--0--0--2--0--3--



E|-----------------|-----------------|-----------|-----------
B|-----------------|-----------------|-----------|-----------
G|-----------------|-----------------|-----------|-----------
D|-----------------|-----------------|-----------|-----------
A|-3-3-3-3-3-3-3-3-|-2-2-2-2-2-2-2-2-|-----------|-----------
E|-----------------|-----------------|-0-0-2-0-3-|-0-0-2-0-3-



E|-----------------|-----------------|-----------------|-----------------
B|-----------------|-----------------|-----------------|-----------------
G|-----------------|-----------------|-----------------|-----------------
D|---------5-------|---------5-------|---------5-------|---------5-------
A|-----5h7---7-5-7-|-----5h7---7-5-7-|-----5h7---7-5-7-|-----5h7---7-5-7-
E|-0-0-------------|-0-0-------------|-0-0-------------|-0-0-------------



E|-----------------|-----------------|-----------------|-----------------
B|-----------------|-----------------|-----------------|-----------------
G|-----------------|-----------------|-----------------|-----------------
D|-----------------|-----------------|---------5-------|---------5-------
A|-5-5-5-5-5-5-5-5-|-4-4-4-4-4-4-4-4-|-----5h7---7-5-7-|-----5h7---7-5-7-
E|-----------------|-----------------|-0-0-------------|-0-0-------------



E|-----------------|-----------------|-------------------------------
B|-----------------|-----------------|-------------------------------
G|-----------------|-----------------|-------------------------------
D|-----------------|-----------------|-----4-----3-----2-----------2-
A|-----7-----5h7p5-|-----7-----5h7p5-|-----------------------4-------
E|-3p0---5h7-------|-3p0---5h7-------|-2-2---2-2---2-2---2-2---2-2---



E|-----------------|-----------------|-----------------------
B|-----------------|-----------------|-----------------------
G|-----------------|-----------------|-----------------------
D|-----------------|-----------------|-----7-5h5-----7-5h7-5-
A|-3-3-3-3-3-3-3-3-|-2-2-2-2-2-2-2-2-|-----------------------
E|-----------------|-----------------|-5-5-------5-5---------



E|-----------------|-----------------|--------------------------|-------------------------|-
B|-----------------|-----------------|--------------------------|-------------------------|-
G|-----------------|-----------------|--------------------------|-------------------------|-
D|-----------------|-----------------|--------------------------|-------------------------|-
A|-----------------|-----------------|--------------------------|-------------------------|-
E|-0-0-0-0-0-0-0-0-|-0-0-0-0-0-0-0-0-|-/12-12-12-12-12-12-12-12-|-12-12-12-12-12-12-12-12-|-



E|-
B|-
G|-
D|-
A|-
E|-
http://www.guitartabcreator.com
Guitar Tab Creator is intended to store guitar tab created through the tool. It currently does not support in-line text editing. Any text you place in here will be lost. If you need to comment on your tab, please use the "Tab Notes" section located below.